Oops, an error
Loading. Please wait.

Love Foolosophy Bass Tab

version 3
version 3
18,681 views 21 this week
no commentswrite comment
1 2 3 4 5
x 5
add to favorites
launch autoscroll
font size
0
reset
guitar tuner
Autoscroll
slow
fast
+/-
esc
set tempo
stop
Help us to improve Ultimate-Guitar.com Take our survey!
×
Author
This is the Abbey Road Version.

130bpm.
Rest for 8 Bars.

1st Verse:
G|----------|------------|------------|------------|
D|-----9----|------------|-----10-----|-9----------|
A|----------|-7-77-----5-|------------|---9------7-|
E|-7-7--7-0-|------5-7---|-8-8----8-7-|-----7-10---|

G|----------|-------------|--------------|---------------|
D|-----9----|-------7---9-|-----8h10-----|---79-7--------| 2 Times.
A|----------|-7-7---------|--------------|-99----------7-|
E|-7-7--7-0-|-----5---7---|-8-8------8-7-|--------7-10---|

G|-----------|-------------|--------------|---------------|
D|-------7---|-------7---9-|-----8h10-----|-99------------|
A|-----79-9--|-7-7---------|--------------|----9-7------7-|
E|-7-7-----0-|-----5---7---|-8-8------8-7-|--------7-10---|

1st Chorus:                                3 Times end on:
G|-------------|--------11-11-|----------|-----------------|
D|-------------|-4-22-4-------|-----11---|---2-4-----5---7-|
A|--------45---|--------------|----------|-----------------| 4 Times.
E|-7-7-77----2-|---------(x)--|-9-9---9--|-0-----2-3---5---|
                        P S P

4th Time end on:
G|---9---7---6---5-|
D|-----------------|
A|-7---5---4---3---|
E|-----------------|

2nd Verse:
G|-------------|-------------|-----------|-------------|
D|-------------|-------7---9-|-----10----|---79-7------|
A|(2-2-22-2)---|-7-7---------|-----------|-99--------7-|
E|-7-7-77-7--0-|-----5---7---|-8-8---8-7-|-------7-10--|

G|-----------|---------|---------11-|---9---7-----|
D|------7----|---------|-----8------|---------97--|
A|----79-9---|-----5---|--10--------|-----------9-|
E|-7-7-----0-|--5-7-8--|-------x----|-x---x-------|
                               S P    S P S P

G|----------|-------------|--------------|---------------|
D|-----9----|-------7---9-|-----8h10-----|---79-7--------|
A|----------|-7-7---------|--------------|-99----------7-|
E|-7-7--7-0-|-----5---7---|-8-8------8-7-|--------7-10---|

G|-----------|--------12---------|---7-9-7-----|----------------|
D|------7----|-----14----14--10--|---------7-9-|-7-7------------|
A|----79-9---|-7-7---------------|-------------|-----9-9-7------|
E|-7-7-----0-|-------------------|-8-----------|-----------9-9--|

2nd Chorus:                                1st Time end on:
G|-------------|--------11-11-|----------|-----------------|
D|-------------|-4-22-4-------|-----11---|---2-4-----5---7-|
A|--------45---|--------------|----------|-----------------| 4 Times.
E|-7-7-77----2-|---------(x)--|-9-9---9--|-0-----2-3---5---|
                        P S P

2nd time end on:
G|---9---7---6---7-|
D|-----------------|
A|-7---5---4---5---|
E|-----------------|

3rd time again on:
G|-----------------|
D|---2-4-----5---7-|
A|-----------------|
E|-0-----2-3---5---|

4th time on:
G|---9---11----12----14-|
D|----------------------|
A|-7---9----10----12----|
E|----------------------|

Interlude:

G|------------|------------|-------------|----------------|
D|----------9-|------------|----------10-|----------9---7-|
A|------------|----------7-|-------------|----------------| 2 Times.
E|-77777777---|-00000000---|-88888888----|-77777777---5---|

G|----------------|----------------|---------------|-------------------|
D|--------9-7---7-|----------------|----------10---|------7-9-7--------|
A|------------9---|--------7-5---5-|---------------|---99-------9-7----| 2 Times.
E|-777777---------|-000000-----7---|-88888888----8-|-7---------------9-|


Rest for 3 bars.

G|-14\-|
D|-----|
A|-----|
E|-----|


3rd Chorus:                                2 times end on:
G|-------------|--------11-11-|----------|-----------------|
D|-------------|-4-22-4-------|-----11---|---2-4-----5---7-|
A|--------45---|--------------|----------|-----------------| 7 Times.
E|-7-7-77----2-|---------(x)--|-9-9---9--|-0-----2-3---5---|
                        P S P

3rd time end on:
G|---9---7---6---7-|
D|-----------------|
A|-7---5---4---5---|
E|-----------------|

Then again on:
G|-----------------|
D|---2-4-----5---7-|
A|-----------------|
E|-0-----2-3---5---|

5th time on:
G|---9---7---6---7-|
D|-----------------|
A|-7---5---4---5---|
E|-----------------|

6th time on:
G|-----------------|
D|---2-4-----5---7-|
A|-----------------|
E|-0-----2-3---5---|

7th time on:
G|---9-----7-----6-----5---|
D|-------------------------|
A|-7---x-5---x-4---x-3---x-|
E|-------------------------|
   S P S S P S S P S S P S


Then during the Solo:
G|---------2-----|------------|---------4---|---9---7---6---7-|
D|-----2-4---4---|-------2-4--|-----4-6---6-|-----------------|
A|-2-2-----------|---2-4------|-4-4---------|-7---5---4---5---|
E|-------------2-|-2----------|-------------|-----------------|

G|-------------|-------------|---4-6-4-----|---9---11----12----14-|
D|-------------|---4-2-------|-46------6-4-|----------------------|
A|--------45---|-------4-2-4-|-------------|-7---9----10----12----|
E|-7-7-77----2-|-2-----------|-------------|----------------------|

Last Chorus:                               1st time end on:
G|-------------|--------11-11-|----------|-----------------|
D|-------------|-4-22-4-------|-----11---|---2-4-----5---7-|
A|--------45---|--------------|----------|-----------------| 4 Times.
E|-7-7-77----2-|---------(x)--|-9-9---9--|-0-----2-3---5---|
                        P S P
2nd time end on:
G|---9---7---6---7-|
D|-----------------|
A|-7---5---4---5---|
E|-----------------|

3rd time on:
G|-----------------|
D|---2-4-----5---7-|
A|-----------------|
E|-0-----2-3---5---|

4th time on:
G|---9---7---6---5-|
D|-----------------|
A|-7---5---4---3---|
E|-----------------|

Ending:
G|-----|-------|-------|---------------|---|
D|-----|-------|----4--|-4-------------|---|
A|-2---|-4-----|-------|---2-2-2-2-2-2-|---|
E|-----|----2--|--2----|---------------|-2-|

Notes:
- 2nd Verse:
In the first bar you can play 2nd fret on the A-String or 7th fret on the E-string, 
it's the same note. It's easier to play on the A-String when you're coming out of the 
but it's easier to go on when you play on the E-String. so it's up to you.
I'm really not sure about the part with the popped notes in the 2nd verse.. I'm sorry..

- Chorus:
Instead of playing |-4-22-4-| on the D-String in the chorus, you can also play 
on the A-String, which makes it easier to go up to the pop-thing.
I actually don't hear that dead note between the popped notes, but for me it makes it easier.
Suggest correction
comments
print report bad tab
guest
You may want to rate the tab now too:
select rating
Wanna post a correction for this tab? Suggest correction