Oops, an error
Loading. Please wait.

Runaway bass

version 1
version 1

Whole song

Interactive

81,583 views 123 this week
4 commentsread comments
1 2 3 4 5
x 13
add to favorites
×
Save as Personal and add changes to this tab that will be seen only by you. Learn more ›
×
You can save this tab as Personal to edit and correct it or add notes. All changes will be seen only by you. Learn more »
launch autoscroll
font size
0
reset
guitar tuner
edit
Autoscroll
slow
fast
+/-
esc
set tempo
stop
Author
Difficulty
Unregistered
intermediate
[Verse / Intro]

G|-----8-7--5----------------------------------------8---------------------|x8
D|------------8-------------------------3----------------------------------|
A|-----------------------3-------------------------6-----------------------|
E|-8---------------0-3-4---4-4--3-----1------------------------------------|


[Chorus]

*****************************************************************************
G|-------------------------------------3-h5--------------------------------|
D|--------------------------------3-h5-----------------------66------------|
A|-3-3-33-3-3---33---3-3-33-3-3--------------3-----------------------------|
E|-----------------------------------------------4-4-44-4-4------4-4-44-4-4|

G|-------------------------------------------------------------------------|
D|---6----5----------------------------------------------------------------|
A|--------------------------------------------14/---6-6-66-6-6-6-66-6------|
E|-4----3------1-1-11-1-1--14/---0-0-00-0-0--------------------------------|


G|-------------(5-h7)----------------(4-h7)|Go-to-the-stars-.-ply-threw-again-|
D|-------(5-h7)----------------(4-h6)------|and-then-carry-on-without-goin----|
A|-5-5-------------------4-4---------------|bak-to-the-stars.-----------------|
E|-----------------------------------------|----------------------------------|


[Verse]::::::::::::::::::::::::::::::::::::::::::::::::::::::::::::::::::::::

G|-----8-7--5----------------------------------------8---------------------|x8
D|------------8-------------------------3----------------------------------|
A|-----------------------3-------------------------6-----------------------|
E|-8---------------0-3-4---4-4--3-----1------------------------------------|

#############################################################################


[Chorus]

G|-------------------------------------3-h5--------------------------------|
D|--------------------------------3-h5-----------------------66------------|
A|-3-3-33-3-3---33---3-3-33-3-3--------------3-----------------------------|
E|-----------------------------------------------4-4-44-4-4------4-4-44-4-4|

G|-------------------------------------------------------------------------|
D|---6----5----------------------------------------------------------------|
A|--------------------------------------------14/---6-6-66-6-6-6-66-6------|
E|-4----3------1-1-11-1-1--14/---0-0-00-0-0--------------------------------|


G|-------------(5-h7)----------------(4-h7)|Go-to-the-hashes-.-ply-threw-again-|
D|-------(5-h7)----------------(4-h6)------|and-then-carry-on-without-goin-----|
A|-5-5-------------------4-4---------------|bak-to-the-hashes.-----------------|
E|-----------------------------------------|-----------------------------------|


'''''''''''''''''''''''''''''''''''
Big break for 22 secs (around that)
'''''''''''''''''''''''''''''''''''

!!!!!!!!!!!!!!!!!!!!!!!!!!!!!!!!!!!!!!!!!!!!!!!!!!!!!!!!!!!!!!!!!!!!!!!!!!!!
G|-------------------------------------3-h5--------------------------------|
D|--------------------------------3-h5-----------------------66------------|
A|-3-3-33-3-3---33---3-3-33-3-3--------------3-----------------------------|
E|-----------------------------------------------4-4-44-4-4------4-4-44-4-4|

G|-------------------------------------------------------------------------|
D|---6----5----------------------------------------------------------------|
A|--------------------------------------------14/---6-6-66-6-6-6-66-6------|
E|-4----3------1-1-11-1-1--14/---0-0-00-0-0--------------------------------|


G|-------------(5-h7)----------------(4-h7)|Go-to-the-!'s-.-ply-threw-again-|
D|-------(5-h7)----------------(4-h6)------|and-then-carry-on-without-goin--|
A|-5-5-------------------4-4---------------|bak-to-the-!'s.-----------------|
E|-----------------------------------------|--------------------------------|

==============================================================================

G|-------------------------------------------------------------------------|
D|-------------------------------------------------------------------------|
A|-3-3-33-3-3--33--3-3-33-3-3----------------------------------------------|
E|-------------------------------3----4-4-44-4-4--44--4-4-44-4-4-----------|

G|-------------------------------------------------------------------------|
D|---6-----5---------------------------------------------------------------|
A|------------------------------------------6-6-66-6-6-6-66-6--------------|
E|-4-----3------1-1-11-1-1--11--0-0-00-0-0---------------------------------|

G|-------------------------|-Then-go-back-to-the-equals-sign.-|-------------|
D|-------------------------|----------------------------------|-------------|
A|-5-5-55-5---4-4-44-4-----|Wen-u-get-back-2-here-it-ends-on--|------3------|
E|-------------------------|----------------------------------|-------------|



************************************

| h  Hammer-on
| /  Slide up

************************************

            
            
Suggest correction
Creating personal tab
Creating personal tab
You can edit any tab online and save it as your Personal.

You can edit, replace or remove any tab part or add personal notes – all changes will be seen only by you.

Personal tabs can be accessed anytime from any device, even offline.
Learn more »
comments
print report bad tab
4 comments total. Showing first comments.
0 reply
chmanbass 10 Aug 01, 2007 06:33 AM

hi guys, who read this, this is actually my tab i did, i just forgot 2 register b4 i uploaded. if u dont believe me go on youtube and search for the user name chmanbass. that is also the same account name i hav on U.G.COM. I THINK THIS TAB IS RITE :)

0 reply
alex3z 10 Sep 12, 2007 09:56 AM

This tab is AWESOME!! and chmanbass you dont 'forget' to register, stop taking this tab away from Carl, hes a legend for this tab!!
Cheers mate!

0 reply
diracster 10 Sep 13, 2011 06:02 AM

Great tab man, thanks. =]

guest
Wanna post a correction for this tab? Suggest correction