Oops, an error
Loading. Please wait.

Starchild bass

version 1
version 1

Whole song

Interactive

9,781 views 6 this week
no commentswrite comment
1 2 3 4 5
2 more votes to show rating
add to favorites
×
Save as Personal and add changes to this tab that will be seen only by you. Learn more ›
×
You can save this tab as Personal to edit and correct it or add notes. All changes will be seen only by you. Learn more »
launch autoscroll
font size
0
reset
guitar tuner
edit
Autoscroll
slow
fast
+/-
esc
set tempo
stop
Author
Difficulty
thers a couple bars without bass and then the bass comes in with a slide
up to 7 and then it goes straight into the verse. listen to the song for exact rhythme. 
didnt bother putting the prechorus in yet because i dont have the tracj on my computer 
now so im doing it form memory ill add it in later though.

E|--------------------||
A|--------------------||
G|-----/7-------------||
D|--------7-----------||

Heres the main verse
E|------------------------------------------------------------------||
A|-9--------------7-X-7h9-------------------------------------------||
G|--------7--9-X----------------5-6-7--7----------------------------||
D|---10---------------------7-7----------7--------------------------||

E|---------------------------------------------------------------------||
A|--------Ill put the prechorus in later ...---------------------------||
G|---------------------------------------------------------------------||
D|---------------------------------------------------------------------||

Chorus
E|-----------------------------7--7-9-X-9----------||
A|--------7---7-9-X-9--------9--9------------------||
G|------9---9------------7-7-----------------------||
D|--7-7--------------------------------------------||

E|-----------------------------4--4-6-X-6----------||
A|---------4--4-6-X----------6--6------------------||
G|-------6--6-----------4-4------------------------||
D|--4-4--------------------------------------------||

            
            
Suggest correction
Creating personal tab
Creating personal tab
You can edit any tab online and save it as your Personal.

You can edit, replace or remove any tab part or add personal notes – all changes will be seen only by you.

Personal tabs can be accessed anytime from any device, even offline.
Learn more »
Give kudos to tab author, rate the tab!
1 2 3 4 5
comments
print report bad tab
guest
You may want to rate the tab now too:
select rating
Wanna post a correction for this tab? Suggest correction