Oops, an error
Loading. Please wait.

Starchild bass

version 2
version 2

Whole song

Interactive

3,868 views 3 this week
no commentswrite comment
1 2 3 4 5
x 4
add to favorites
×
Save as Personal and add changes to this tab that will be seen only by you. Learn more ›
×
You can save this tab as Personal to edit and correct it or add notes. All changes will be seen only by you. Learn more »
launch autoscroll
font size
0
reset
guitar tuner
edit
Autoscroll
slow
fast
+/-
esc
set tempo
stop
Author
Difficulty
I don't usually do bass tabs, so I hope this one is ok!

  1 + 2 + 3 + 4 + |1 + 2 + 3 + 4 + |
G|----------------|----------------|
D|----------------|----------------|
A|----------------|----------------|
E|----------------|----------------|

  1 + 2 + 3 + 4 + |1 + 2 + 3 + 4 + |
G|----------------|----------------|
D|----------------|----------------|
A|----------------|-/9-75--------2-|
E|----------------|------7-0-2-----|

VERSE `
  1 + 2 + 3 + 4 + |1 + 2 + 3 + 4 + |
G|----------------|----------------|
D|--9-------97--9-|----------------|
A|----5-7-9-------|------567-7-----|
E|----------------|--77----------7-|x3

  1 + 2 + 3 + 4 + |1 + 2 + 3 + 4 + |
G|----------------|----------------|
D|--9-------97--9-|----------------|
A|----5-7-9-------|------5675------|
E|----------------|--77------70--7-|

  1 + 2 + 3 + 4 + |1 + 2 + 3 + 4 + |
G|----------------|----------------|
D|--9-------97--9-|----------------|
A|----5-7-9-------|------567-7-----|
E|----------------|--77----------7-|

  1 + 2 + 3 + 4 + |1 + 2 + 3 + 4 + |
G|----------------|----------------|
D|--9-------97--9-|----------------|
A|----5-7-9-------|------567-7---4-|
E|----------------|--77------------|

  1 + 2 + 3 + 4 + |1 + 2 + 3 + 4 + |
G|----------------|----------------|
D|--6---6---6-----|--4-------------|
A|----4---4---4-2-|--------------2-|
E|----------------|----12/-0-0-----|


VERSE 2 + PRECHORUS
  1 + 2 + 3 + 4 + |1 + 2 + 3 + 4 + |
G|----------------|----------------|
D|--9-------97--9-|----------------|
A|----5-7-9-------|------567-7-----|
E|----------------|--77----------7-|x5

  1 + 2 + 3 + 4 + |1 + 2 + 3 + 4 + |
G|----------------|----------------|
D|--9-------97--9-|----------------|
A|----5-7-9-------|------557-7---4-|
E|----------------|--77------------|

  1 + 2 + 3 + 4 + |1 + 2 + 3 + 4 + |
G|--------6-x6-x--|----------------|
D|-----696--------|--------6-x6-x--|
A|----------------|-----696------6-|
E|--------------4-|----------------|

  1 + 2 +  3 + 4 + |1 + 2 + 3 +   4   + |
G|---------8-x8-x--|--------------------|
D|-----8118--------|--------------14----|
A|---------------7-|--7-------7/12--12\-|
E|-----------------|------8-------------|


CHORUS
  1 + 2 +  3 + 4 + |1 + 2 +  3 + 4 + |1 + 2 + 3 + 4 + |1 + 2 + 3 + 4 + |
G|-----------------|---------9-x9-x--|--------6-x6-x--|----------------|
D|---------9-x9-x--|-----9129--------|-----696--------|--------66------|
A|-----9129------7-|-----------------|----------------|-----696--6-----|
E|7--79------------|---------------9-|--------------4-|-----------7-x4-|

  1 + 2 +  3 + 4 + |1 + 2 +  3 + 4 + |1 + 2 + 3 + 4 + |1 + 2 + 3 + 4 + |
G|-----------------|---------9-x9-x--|--------6-x6-x--|----------------|
D|---------9-x9-x--|-----9129--------|-----696--------|--------6-x6----|
A|-----9129------7-|-----------------|----------------|-----696--------|
E|7-7--------------|---------------9-|--------------4-|-------------x4-|

  1 + 2 +  3 + 4 + |1 + 2 +  3 + 4 + |1 + 2 + 3 + 4 + |1 + 2 + 3 + 4 + |
G|-----------------|---------9-x9-x--|--------6-x6-x--|----------------|
D|---------9-x9-x--|-----9129--------|-----696--------|--------66------|
A|-----9129------7-|-----------------|----------------|-----696--6-----|
E|7-7--------------|---------------9-|--------------4-|-----------7-x4-|

  1 + 2 +  3 + 4 + |1 + 2 + 3 + 4 + |
G|-----------------|----------------|
D|---------9-x9-x--|----------------|
A|-----9129------7-|----14/-0-----2-|
E|7-7--------------|----------------|


(1:40)
  1 + 2 + 3 + 4 + |1 + 2 + 3 + 4 + |
G|----------------|----------------|
D|----------------|----------------|
A|----------------|--------14/---2-|
E|----------------|----------------|

VERSE 3 + PRECHORUS
  1 + 2 + 3 + 4 + |1 + 2 + 3 + 4 + |
G|----------------|----------------|
D|--9-------97--9-|----------------|
A|----5-7-9-------|------567-7-----|
E|----------------|--77----------7-|x5

  1 + 2 + 3 + 4 + |1 + 2 + 3 + 4 + |
G|----------------|----------------|
D|--9-------97--9-|----------------|
A|----5-7-9-------|------557-7---4-|
E|----------------|--77------------|

  1 + 2 + 3 + 4 + |1 + 2 + 3 + 4 + |
G|--------6-x6-x--|----------------|
D|-----696--------|--------6-x6-x--|
A|----------------|-----696------6-|
E|--------------4-|----------------|

  1 + 2 +  3 + 4 + |1 + 2 + 3 +   4   +  |
G|---------8-x8-x--|---------------------|
D|-----8118--------|--------------14-----|
A|---------------7-|--7-------7/12--12\--|
E|-----------------|------8--------------|

CHORUS
  1 + 2 +  3 + 4 + |1 + 2 +  3 + 4 + |1 + 2 + 3 + 4 + |1 + 2 + 3 + 4 + |
G|-----------------|---------9-x9-x--|--------6-x6-x--|----------------|
D|---------9-x9-x--|-----9129--------|-----696--------|------6-8-9-8-6-|
A|-----9129------7-|-----------------|----------------|-----6-6-6------|
E|7--7-------------|---------------9-|--------------4-|--4-------------|

  1 + 2 +  3 + 4 + |1 + 2 +  3 + 4 + |1 + 2 + 3 + 4 + |1 + 2 + 3 + 4 + |
G|-----------------|---------9-x9----|--------6-x6-x--|----------------|
D|---------9-x9-x--|-----9129-----9--|-----696--------|--------66------|
A|-----9129------7-|---------------7-|----------------|-----696--6-----|
E|7-7--------------|-----------------|9-9-----------4-|-----------7-x4-|

  1 + 2 +  3 + 4 + |1 + 2 +  3 + 4 + |1 + 2 + 3 + 4 + |1 + 2 + 3 + 4 + |
G|-----------------|---------9-x9-x--|--------6-x6-x--|----------------|
D|---------9-x9-x--|-----9129--------|-----696--------|--------6-------|
A|-----9129------7-|-----------------|----------------|-----696-96-----|
E|7-7--------------|---------------9-|--------------4-|-----------4-x7-|

  1 + 2 +  3 + 4 + |1 + 2 + 3 + 4 + |
G|-----------------|----------------|
D|---------9-x9-x--|----------------|
A|-----9129------7-|----14/-0-----2-|
E|7-7--------------|----------------|


2:47
  1 + 2 + 3 + 4 + |1 + 2 + 3 + 4 + |
G|----------------|----------------|
D|--9-------97--9-|----------------|
A|----5-7-9-------|------567-7-----|
E|----------------|--77----------7-|

  1 + 2 + 3 + 4 + |1 + 2 + 3 + 4 + |
G|----------------|----------------|
D|--9-------97--9-|----------------|
A|----5-7-9-------|------569-9---7-|
E|----------------|--77------------|

  1 + 2 + 3 + 4 + |1 + 2 + 3 + 4 + |
G|----------------|----------------|
D|----------------|------79--------|
A|--7--7-57--7--9-|-99--9--9-9---98|
E|------7------7--|-------------7--|

  1 + 2 + 3 + 4 + |1 + 2 +   3 + 4 + |
G|----------------|------------------|
D|----------------|------11109-------|
A|7-7--7-57--7--9-|-99--9-----9----98|
E|------7------7--|------------997---|

  1 + 2 + 3 + 4 + |1 + 2 + 3 + 4 + |
G|----------------|----------------|
D|----------------|----------------|
A|7-7--7-57--7--9-|--9---9/0-------|
E|------7------7--|----------------|

BRIDGE
  1 + 2 + 3 + 4 + |1 + 2 + 3 + 4 + |
G|----------------|----------------|
D|--4\---4--------|--4\---4----4---|
A|2---0---2-------|2---0-2--42--2--|
E|----------------|----------------|x3

  1 + 2 + 3 + 4 + |1 + 2 + 3 + 4 + |
G|----------------|----------------|
D|-------4--------|----------------|
A|2-------2-------|0-0-0-0-0-0-0-0-|
E|----------------|----------------|

3:24
CHORUS
  1 + 2 +  3 + 4 + |1 + 2 +  3 + 4 + |1 + 2 + 3 + 4 +  |1 + 2 + 3 + 4 + |
G|-----------------|---------9-x9-x--|--------66-------|----------------|
D|---------9-x9-x--|-----9129------9-|-----696--6------|------6-8-9-8-6-|
A|-----9129------98|7-7-------------7|-----------7-x4h6|-----6-6-6-6-6--|
E|7--7-------------|-----------------|9-9--------------|4-4-------------|

  1 + 2 +  3 + 4 +  |1 + 2 +  3 + 4 + |1 + 2 + 3 + 4 +  |1 + 2 + 3 + 4 + |
G|------------------|---------9-x9----|--------6-x6-x---|----------------|
D|---------9-x9-----|-----9129-----9--|-----696---------|--------6-6-6---|
A|-----9129---------|7-7------------7-|--------------4h6|-----696-----6--|
E|7-7-----------7107|-----------------|9-9--------------|4-4-----------7-|


  1 + 2 +  3 + 4 +  |1 + 2 +  3 + 4 + |1 + 2 + 3 + 4 + |1 + 2 + 3 + 4 + |
G|------------------|---------9-x9-x--|--------6-x6----|----------------|
D|---------9-x9-x--9|-----9129------9-|-----696-----6--|--------6-x6--6-|
A|-----9129------12-|7-7-------------7|--------------4x|-----696-----6-x|
E|7--7--------------|-----------------|9-9-------------|4-4-------------|

3:50
  1 + 2 +  3 + 4 + |1 + 2 +  3 + 4 + |
G|-----------------|-----------------|
D|---------9-x9-x--|-----912---------|
A|-----9129------7-|---------0-------|
E|7-7--------------|---------------7-|

  1 + 2 +  3 + 4 + |1 + 2 +  3 + 4 + |1 + 2 + 3 + 4 +  |1 + 2 + 3 + 4 + |
G|-----------------|---------9-x9----|--------6--------|----------------|
D|---------9-x9-x--|-----9129-----9--|-----696--6------|------6-8-9-8-6-|
A|-----9129------7-|---------------7-|-----------4-x4h6|-----6-6-6-6-6--|
E|---7-------------|----------------x|9-9--------------|4-4-------------|

  1 + 2 +  3 + 4 + |1 + 2 +  3 + 4 + |1 + 2 + 3 + 4 +  |1 + 2 + 3 + 4 + |
G|-----------------|---------9-x9----|--------6--------|----------------|
D|---------9-x9-x--|-----9129-----9--|-----696--6------|------6-8-9-8-6-|
A|-----9129------7-|---------------7-|-----------4-x4h6|-----6-6-6-6-6--|
E|7--7-------------|----------------x|9-9--------------|4-4-------------|

  1 + 2 +  3 + 4 +  |1 + 2 +  3 + 4 + |1 + 2 + 3 + 4 + |1 + 2 + 3 + 4 + |
G|------------------|---------9-x9----|--------6-x6-x--|----------------|
D|---------9-x9-----|-----9129-----9--|-----696--------|--------6-x6----|
A|-----9129---------|7-7------------7-|----------------|-----696------6-|
E|7--7----------7107|----------------x|9-9-----------4-|4-4------------9|

  1 + 2 +  3 + 4 +  |1 + 2 +  3 + 4 + |
G|------------------|-----------------|
D|---------9-x9-----|-----912---------|
A|-----9129---------|7-7------0---0---|
E|7--7----------7107|-----------------|

  1 + 2 +  3 + 4 +  |1 + 2 +  3 + 4 + |1 + 2 + 3 + 4 +  |1 + 2 + 3 +  4 + |
G|------------------|---------9-x9----|--------6-x6-x---|-----------------|
D|---------9-x9-9---|-----9129-----9--|-----696------4h6|------6-6--------|
A|-----9129------12-|7-7------------7-|-----------------|-----6---96------|
E|7--7--------------|-----------------|9-9--------------|4-4--------10974-|

  1 + 2 +  3 + 4 +  |1 + 2 +  3 + 4 + |
G|------------------|-----------------|
D|---------9-x9-----|-----912---------|
A|-----9129---------|7-7------0---0---|
E|7--7----------7107|-----------------|

4:35
  1 + 2 +  3 + 4 +  |1 + 2 +  3 + 4 + |1 + 2 + 3 + 4 +  |1 + 2 + 3 + 4 +  |
G|------------------|---------9-x9----|--------6-x6-x---|-----------------|
D|---------9-x9-----|-----912------9--|-----696------4h6|--------6-6------|
A|-----9129---------|7-7------------7-|-----------------|-----696-6--9-6--|
E|7--7----------710-|-----------------|9-9--------------|4-4------------10|


  1 + 2 +  3 + 4 + |1 + 2 +  3 + 4 + |1 + 2 + 3 + 4 +  |1 + 2 + 3 + 4 + |
G|-----------------|---------9-x9----|--------6-x6-x---|----------------|
D|---------9-x9----|-----9129-----9--|-----696------4h6|------6-8-9-8-6-|
A|-----9129------98|7-7------------7-|-----------------|-----6-6-6------|
E|7--7-------------|-----------------|9-9--------------|4-4-------------|


  1 + 2 +  3 + 4 + |1 + 2 +  3 + 4 + |1 + 2 + 3 + 4 +  |1 + 2 + 3 +  4 + |
G|-----------------|---------9-x9----|--------6-x6-x---|-----------------|
D|---------9-x9----|-----9129-----9--|-----696------4h6|------6-6--------|
A|-----9129-----x9-|7-7------------7-|-----------------|-----6---96------|
E|7--7-------------|-----------------|9-9--------------|4-4--------10974-|


  1 + 2 +  3 + 4 + |1 + 2 +  3 + 4 + |1 + 2 + 3 + 4 +  |1 + 2 + 3 + 4 +   |
G|-----------------|---------9-x9----|--------6-x6-x---|---------------11\|
D|---------9-x9----|-----9129-----9--|-----696------4h6|--------------9---|
A|-----9129-----x9-|7-7------------7-|-----------------|----11/------9----|
E|7--7-------------|-----------------|9-9--------------|4-4-----0---------|

FADE OUT....

            
            
Suggest correction
Creating personal tab
Creating personal tab
You can edit any tab online and save it as your Personal.

You can edit, replace or remove any tab part or add personal notes – all changes will be seen only by you.

Personal tabs can be accessed anytime from any device, even offline.
Learn more »
comments
print report bad tab
guest
You may want to rate the tab now too:
select rating
Wanna post a correction for this tab? Suggest correction