Oops, an error
Loading. Please wait.

Stillness In Time bass

version 1
version 1

Whole song

Interactive

6,935 views 6 this week
no commentswrite comment
1 2 3 4 5
2 more votes to show rating
add to favorites
×
Save as Personal and add changes to this tab that will be seen only by you. Learn more ›
×
You can save this tab as Personal to edit and correct it or add notes. All changes will be seen only by you. Learn more »
launch autoscroll
font size
0
reset
guitar tuner
edit
Autoscroll
slow
fast
+/-
esc
set tempo
stop
Author
Took me a while to make this tab, didnt relise this site didnt have this
song on bass. This is my attemp on one of jemiroquai's best. Sorry i missed
out some fills, which am sure you can mannage but keep on funkin ! 
A.J

Normal Tuning 

main riff
|-----5--------12---|-----5--------12---|--------------|----------|
|---5---x-3--12--12-|---5---x-3--12--12-|-----99-------|----------|
|-3-----------------|-3-----------------|---88---88----|---88-----| x2
|-------------------|-------------------|-6----------6-|-6----x-3-|

verse
|-------------|-----------|----------------|-----------|
|-----88------|-----------|-----8/9\8------|-----------|
|---66---66---|-4-x-4-x-4-|---66------66---|-4-x-4-x-4-|
|-4---------4-|-----------|-4------------4-|-----------|

|-------------|-----------|----------------|-----------|
|-----66------|-----------|-----6/7\6------|-----------|
|---44---44---|-2-x-2-x-2-|---44------44---|-2-x-2-x-2-|
|-2---------4-|-----------|-2------------2-|-----------|

2nd verse
|-------------12---|------------10---|
|----10,10--12--12-|----------10--10-|
|--88--------------|---77-x-6--------| x4
|-6----------------|-6---------------|

chorus                                        end fill
|--------------|---------|---8-----8-|       |--------------------------|
|--------------|---------|-----8-----|       |-13/15-13----------13-15~-|
|-2--0-3-2--x--|-4---3-4-|-6-----6---| xlots |----------16-15-16--------|
|---3--------3-|---3-----|-----------|       |--------------------------|

flute solo
|-----5--------12---|-----5--------12---|--------------|----------|
|---5---x-3--12--12-|---5---x-3--12--12-|-----99-------|----------|
|-3-----------------|-3-----------------|---88---88----|---88-----| x2
|-------------------|-------------------|-6----------6-|-6----x-3-|

|-------------|-----------|----------------|-----------|
|-----88------|-----------|-----8/9\8------|-----------|
|---66---66---|-4-x-4-x-4-|---66------66---|-4-x-4-x-4-|
|-4---------4-|-----------|-4------------4-|-----------|

|-------------|-----------|----------------|-----------|
|-----66------|-----------|-----6/7\6------|-----------|
|---44---44---|-2-x-2-x-2-|---44------44---|-2-x-2-x-2-|
|-2---------4-|-----------|-2------------2-|-----------|

2nd verse
|-------------12---|------------10---|
|----10,10--12--12-|----------10--10-|
|--88--------------|---77-x-6--------| x4
|-6----------------|-6---------------|

outro
|--------------|---------|---8-----8-|       
|--------------|---------|-----8-----|       
|-2--0-3-2--x--|-4---3-4-|-6-----6---| xlots 
|---3--------3-|---3-----|-----------|       

2nd outro
|--------------|---------|----------------|       
|--------------|---------|---13/15--13/15-|       
|-2--0-3-2--x--|-4---3-4-|-6--------------| xlots 
|---3--------3-|---3-----|----------------|       

End fill
|--------------------------| 
|-13/15-13----------13-15~-|
|----------16-15-16--------|
|--------------------------|

And thats it. Sorry for any mistakes, please comment before rating. hope 
you enjoyed. And keep on funking ! A.J :D

            
            
Suggest correction
Creating personal tab
Creating personal tab
You can edit any tab online and save it as your Personal.

You can edit, replace or remove any tab part or add personal notes – all changes will be seen only by you.

Personal tabs can be accessed anytime from any device, even offline.
Learn more »
Give kudos to tab author, rate the tab!
1 2 3 4 5
comments
print report bad tab
guest
You may want to rate the tab now too:
select rating
Wanna post a correction for this tab? Suggest correction