Oops, an error
Loading. Please wait.

Time Wont Wait bass

version 2
version 2

Whole song

Interactive

52,886 views 168 this week
1 commentread comment
1 2 3 4 5
x 14
add to favorites
×
Save as Personal and add changes to this tab that will be seen only by you. Learn more ›
×
You can save this tab as Personal to edit and correct it or add notes. All changes will be seen only by you. Learn more »
launch autoscroll
font size
0
reset
guitar tuner
edit
Autoscroll
slow
fast
+/-
esc
set tempo
stop
Author
Difficulty
intermediate
Jamiroquai - Time Won't Wait
By: AdoFlowers

http://profile.ultimate-guitar.com/adoflowers/

[Intro]

G|----------------------------------------------|
D|----------------------------------------------|
A|------3h5-5-3h5\1-------3h5--5h7p5--5h7p5-----|
E|--3h5----------------3h5----------------------|
                                                  x4
G|---------------------------------------------|
D|---------------------------------3h5p3-------|
A|------3h5-5-3h5\1-------3h5-5-3--------5h7p5-|
E|--3h5---------------3h5----------------------|

alternative ending at the fourth repetition
G|----------------------------------------------|
D|----------------------------------------------|
A|------3h5-5-3h5\1-------3h5-5-3---------------|
E|--3h5---------------3h5-----------1/9----12\1-|


[Chorus]

G|--------------5-5-3-5------3-3-1-3-------------------|
D|--3-3-1-3---------------------------------4--4h6-4---|
A|------------3---------3--1---------1----4--4-------4-| x2
E|1---------1--------------------------1---------------|


[Verse]

G|-----------------------------|
D|----6-8----------------------|
A|------------3h5-3------3h5-5-|    x3
E|-x------3-4---------3h5------|


G|------------------------------------|
D|-5-5--------------5-56-5h7—5h7------|
A|------------------------------------|    x1
E|------3-3---5-5---------------------|


[Verse]

G|-----------------------------|
D|----6-8----------------------|
A|------------3h5-3------3h5-5-|    x3
E|-x------3-4---------3h5------|

G|------------------------------------|
D|-5-5--------------5-56-5h7—5h7------|
A|------------------------------------|    x1
E|------3-3---5-5---------------------|


[Chorus]

G|--------------5-5-3-5------3-3-1-3-------------------|
D|--3-3-1-3---------------------------------4--4h6-4---|
A|------------3---------3--1---------1----4--4-------4-|
E|1---------1--------------------------1---------------|

G|------------------------------------------------------------|
D|------3---------3-2-1------------------4-----5-------4------|
A|----3--3----1-1---------------6-5-4--------5-------4--------| 
E|1-1---------------------6-5-4--------4---3------/2----------|


G|--------------5-5-3-5------3-3-1-3-----------------------|
D|--3-3-1-3------------------------------------4---4h6-7-8-|
A|------------3---------3--1---------1-------4-------------|
E|1---------1---------------------------2-2----------------|

G|-----------------------------------------------------------|
D|----------------------------------------4------------------|
A|-----------------8-7-6---------6-5-4-------------1-2-33----|
E|1-1--1----4-5-6---------6-5-4----------4----2-2------------|


[Verse]

G|-----------------------------|
D|----6-8----------------------|
A|------------3h5-3------3h5-5-|    x3
E|-x------3-4---------3h5------|

G|------------------------------------|
D|-5-5--------------5-56-5h7—5h7------|
A|------------------------------------|    x1
E|------3-3---5-5---------------------|


[Verse]

G|-----------------------------|
D|----6-8----------------------|
A|------------3h5-3------3h5-5-|    x3
E|-x------3-4---------3h5------|

G|------------------------------------|
D|-5-5--------------5-56-5h7—5h7------|
A|------------------------------------|    x1
E|------3-3---5-5---------------------|


[Chorus]

G|--------------5-5-3-5------3-3-1-3-------------------|
D|--3-3-1-3---------------------------------4--4h6-4---|
A|------------3---------3--1---------1----4--4-------4-|
E|1---------1--------------------------1---------------|

G|------------------------------------------------------------|
D|------3---------3-2-1------------------4-----5-------4------|
A|----3--3----1-1---------------6-5-4--------5-------4--------| 
E|1-1---------------------6-5-4--------4---3------/2----------|


G|--------------5-5-3-5------3-3-1-3-----------------------|
D|--3-3-1-3------------------------------------4---4h6-7-8-|
A|------------3---------3--1---------1-------4-------------|
E|1---------1---------------------------2-2----------------|

G|-----------------------------------------------------------|
D|----------------------------------------4------------------|
A|-----------------8-7-6---------6-5-4-------------1-2-33----|
E|1-1--1----4-5-6---------6-5-4----------4----2-2------------|


[Interlude]

G|---------------------------------------------------------------|
D|---------------------------------------------------------------|
A|-3h5-3------------------------------------------------------3h5|
E|-------5h3--1-345-5-55-5-5---3-3-33-3-3-3- 345-5-55-5-5—3h5----|

G|---------------------------------------------------------------|
D|-------------------------------------------------------5h7—3h5-|
A|-3h5-3---------------------------------------------------------|
E|-------5h3-1-345-5-55-5-5---3-3-33-3-1h3--345-5-55-5-5—--------|

G|---------------------------------------------------------------|
D|---------------------------------------------------------------|
A|-3h5-3------------------------------------------------------3h5|
E|-------5h3--1-345-5-55-5-5---3-3-33-3-3-3- 345-5-55-5-5—3h5----|

G|---------------------------------------------------------------|
D|---------------------------------------------------------------|
A|-3h5-3------------------------------------------------------3h5|
E|-------5h3--1-345-5-55-5-5---3-3-33-3-3-3- 345-5-55-5-5—3h5----|


[Chorus]

G|--------------5-5-3-5------3-3-1-3-------------------|
D|--3-3-1-3---------------------------------4--4h6-4---|
A|------------3---------3--1---------1----4--4-------4-|
E|1---------1--------------------------1---------------|

G|------------------------------------------------------------|
D|------3---------3-2-1------------------4-----5-------4------|
A|----3--3----1-1---------------6-5-4--------5-------4--------| 
E|1-1---------------------6-5-4--------4---3------/2----------|


G|--------------5-5-3-5------3-3-1-3-----------------------|
D|--3-3-1-3------------------------------------4---4h6-7-8-|
A|------------3---------3--1---------1-------4-------------|
E|1---------1---------------------------2-2----------------|

G|-----------------------------------------------------------|
D|----------------------------------------4------------------|
A|-----------------8-7-6---------6-5-4-------------1-2-33----|
E|1-1--1----4-5-6---------6-5-4----------4----2-2------------|


[Break]
(No bass)


[Outro]

G|-------------------|
D|-------------------|
A|-------------------|
E|-3--3--3--3--------|

G|--------------5-5-3-5------3-3-1-3-------------------|
D|--3-3-1-3---------------------------------4--4h6-4---|
A|------------3---------3--1---------1----4--4-------4-| x1
E|1---------1--------------------------1---------------|


[Last Chorus]

G|--------------5-5-3-5------3-3-1-3-------------------|
D|--3-3-1-3---------------------------------4--4h6-4---|
A|------------3---------3--1---------1----4--4-------4-|
E|1---------1--------------------------1---------------|

G|------------------------------------------------------------|
D|------3---------3-2-1------------------4-----5-------4------|
A|----3--3----1-1---------------6-5-4--------5-------4--------| 
E|1-1---------------------6-5-4--------4---3------/2----------|


G|--------------5-5-3-5------3-3-1-3-------------------|
D|--3-3-1-3---------------------------------4--4h6-4---|
A|------------3---------3--1---------1----4--4-------4-|
E|1---------1--------------------------1---------------|

G|------------------------------------------------------------|
D|------------------------------------------------------------|
A|-----------------8-7--6-------------6--5---4~---------------|
E|1-1--1----4-5-6---------6--5---4----------------2~~---------|



************************************

| x  Dead note
| h  Hammer-on
| p  Pull-off
| /  Slide up
| \  Slide down
| ~  Vibrato 

************************************

            
            
Suggest correction
Creating personal tab
Creating personal tab
You can edit any tab online and save it as your Personal.

You can edit, replace or remove any tab part or add personal notes – all changes will be seen only by you.

Personal tabs can be accessed anytime from any device, even offline.
Learn more »
comments
print report bad tab
1 comment total.
0 reply
EmekMEtal 23 Dec 09, 2013 03:12 PM

Sounds perfect 5 stars!

guest
You may want to rate the tab now too:
select rating
Wanna post a correction for this tab? Suggest correction