Oops, an error
Loading. Please wait.

When You Gonna Learn bass

version 2
version 2

Whole song

Interactive

15,367 views 18 this week
2 commentsread comments
1 2 3 4 5
x 5
add to favorites
×
Save as Personal and add changes to this tab that will be seen only by you. Learn more ›
×
You can save this tab as Personal to edit and correct it or add notes. All changes will be seen only by you. Learn more »
launch autoscroll
font size
0
reset
guitar tuner
edit
Autoscroll
slow
fast
+/-
esc
set tempo
stop
Jamiroquai

When you gonna learn
tabs by dor samoha
for questions samoha91@hotmail.com

x= slid

Verses    bass start on (0:19)

G:----------5--x-----------------------------------------------------------|
D:--------5-------0-1-2-3--x-----------------3--------2--------------3-----|
A:-15/--3------------------------3---------3--------2--------------3-------|
E:---------------------------------1-1-----------0---------0-0--1----------|


G:-----3-------4-----------------------------------------------------------|
D:-------------------------------------------------------------------------|
A:-1-------2---------------------------------------------------------------|
E:-------------------------------------------------------------------------|

Chorus
G:------3------3------3------3-----------7----------6-----5-----5-----5---|
D:-----------------------------------------------6------------------------|
A:-1-------1------1------1------1/---5-------4---------3-----3-----3------|
E:------------------------------------------------------------------------|


G:------5-----------------------------------------------------------------|
D:-----------------------------3------------------------------------------|
A:--3---------4-----------------------------------------------------------|
E:------------------0----1------------------------------------------------|


and them back to the Verses and this is all the song

(this is my firs Tablature)

Good luck!
Suggest correction
Creating personal tab
Creating personal tab
You can edit any tab online and save it as your Personal.

You can edit, replace or remove any tab part or add personal notes – all changes will be seen only by you.

Personal tabs can be accessed anytime from any device, even offline.
Learn more »
comments
print report bad tab
2 comments total.
0 reply
Zulfikar3 10 Apr 04, 2009 07:22 AM

Very simplified tab! Miss a lot of things.

0 reply
SleepyHollow 31 Aug 14, 2010 01:14 AM

the 2nd half of the chorus goes more like this

G----5----5----------5----6-------------
D--------------5----------------3-------
A--3---3-----------3----4-----3---------
E-----------3---------------1------

guest
Wanna post a correction for this tab? Suggest correction