Oops, an error
Loading. Please wait.

White Knuckle Ride bass

version 1
version 1

Whole song

Interactive

15,406 views 21 this week
2 commentsread comments
1 2 3 4 5
x 12
add to favorites
×
Save as Personal and add changes to this tab that will be seen only by you. Learn more ›
×
You can save this tab as Personal to edit and correct it or add notes. All changes will be seen only by you. Learn more »
launch autoscroll
font size
0
reset
guitar tuner
edit
Autoscroll
slow
fast
+/-
esc
set tempo
stop
Author
Sup! I couldn't find a version of this tab anywhere. :( so here's my version
of it :)Its pretty damn simple, but keep in mind that Paul Turner like's to
funk out to this song. Please rate and comment :)
love peace and chicken grease A.J x

Note: In the chorus, Paul plays extra ghost notes so improvise and jam out
those extra little licks in the key of G major. Enjoy :) 

[Intro]
wait for 2 bars..
G|-15--14-\\-9--7----15--14-\\-9--10-|
D|-----------------------------------|
A|-----------------------------------|
E|-15--13-\\-8--6----15--13-\\-8--10-|

[Verse] (With some Wah)
G|-------------------5----10---8---7-|------------------------------|
D|-----------------------------------|------------------------------|
A|-3-3--3---3----1/3----8----6----5--|-------------------x-3--1-3-1-| x6
E|-----------------------------------|-3-3--3---3-1h3-3-------------|

wait for 2 bars.. 

[Interlude]
G|-15--14-\\-9--7----15--14-\\-9--10-|
D|-----------------------------------|
A|-----------------------------------|
E|-15--13-\\-8--6----15--13-\\-8--10-|

[Chorus]
G|-----------------------|----------------------------|   
D|-----------------------|--------------5-5-----------|    
A|-3-3--3---3--x-6-6--8--|----------------------------| x4  
E|-----------------------|-3-3--3---3-------3--3--1h3-|     
                                                           
 [2nd Verse]
G|-------------------5----10---8---7-|------------------------------|
D|-----------------------------------|------------------------------|
A|-3-3--3---3----1/3----8----6----5--|-------------------x-3--1-3-1-| x4
E|-----------------------------------|-3-3--3---3-1h3-3-------------|

wait for 2 bars..

 [2nd Interlude]
G|-15--14-\\-9--7----15--14-\\-9--10-|
D|-----------------------------------|
A|-----------------------------------|
E|-15--13-\\-8--6----15--13-\\-8--10-|

 [2nd Chorus]
G|-----------------------|----------------------------|
D|-----------------------|--------------5-5-----------|
A|-3-3--3---3--x-6-6--8--|----------------------------| x3
E|-----------------------|-3-3--3---3-------3--3--1h3-|

Pause... for 2 bars

[Outro]
G|-----------------------|----------------------------|
D|-----------------------|--------------5-5-----------|
A|-3-3--3---3--x-6-6--8--|----------------------------| repeat till end :) 
E|-----------------------|-3-3--3---3-------3--3--1h3-|

And that's it :) please comment rate and most of all funk out ;) peace! A.J

************************************

| \  Slide down
| x  Dead note
| /  Slide up
| h  Hammer-on

************************************

            
            
Suggest correction
Creating personal tab
Creating personal tab
You can edit any tab online and save it as your Personal.

You can edit, replace or remove any tab part or add personal notes – all changes will be seen only by you.

Personal tabs can be accessed anytime from any device, even offline.
Learn more »
comments
print report bad tab
2 comments total.
+1 reply
Pimeko 70 Mar 10, 2013 10:13 AM

Great tab, thanks !

0 reply
toonruss 10 Jan 20, 2014 12:46 PM

Excellent..slowly getting there..Thanks

guest
You may want to rate the tab now too:
select rating
Wanna post a correction for this tab? Suggest correction