Oops, an error
Loading. Please wait.

Best Mistake tab

version 3
version 3

Whole song

354 views 3 this week
2 commentsread comments
1 2 3 4 5
3 more votes to show rating
add to favorites
×
Save as Personal and add changes to this tab that will be seen only by you. Learn more ›
×
You can save this tab as Personal to edit and correct it or add notes. All changes will be seen only by you. Learn more »
launch autoscroll
font size
0
reset
how to read this tab
guitar tuner
edit
Autoscroll
slow
fast
+/-
esc
set tempo
stop
Tabbed by: TheIntentToStartFire
http://www.myspace.com/act7scene8

Artist: JamisonParker
Song: Best Mistake
Tuning: Drop D

Intro riff
e|--10------9------9------9-------10----10-----|
B|-----10-----10-----10-----10-------10----10--|
G|--------7------7------7------7---------------|
D|---------------------------------------------|
A|---------------------------------------------|
D|---------------------------------------------|

Rythm/ verse I
e|--------------------------------------------------|
B|--------------------------------------------------|
G|--------------------------------------------------|
D|-4-4-4-5-5-5-5-5-5-5-5/-9-9-9-9-9-9-7-7-7-7-7-7---|
A|-5-5-5-5-5-5-5-5-5-5-5/-9-9-9-9-9-9-7-7-7-7-7-7---|
D|-4-4-4-5-5-5-5-5-5-5-5/-9-9-9-9-9-9-7-7-7-7-7-7---|

Pre-chorus
"From the lack of sleep..."
e|----------------------------------------------|
B|----------------------------------------------|
G|----------------------------------------------|
D|-5~---99-7---7-7--5~---99-7---7-7----|X2|-----|
A|-5~---99-7---7-7--5~---99-7---7-7-------------|
D|-5~---99-7---7-7--5~---99-7---7-7-------------|

Chorus
"We're not sleeping..."
e|--------------------------------------------------------------------------|
B|--------------------------------------------------------------------------|
G|------------------------4-4-4-4-4-4-4-4-----------------------------------|
D|-5-5-5-5-5-5-5-5-5-5-5--4-4-4-4-4-4-4-4--5-5-5-5-5-5-5-5/-9-9-9-9-9-9-9-9-|
A|-5-5-5-5-5-5-5-5-5-5-5--2-2-2-2-2-2-2-2--5-5-5-5-5-5-5-5/-9-9-9-9-9-9-9-9-|
D|-5-5-5-5-5-5-5-5-5-5-5-------------------5-5-5-5-5-5-5-5/-9-9-9-9-9-9-9-9-|

Rythm/ verse II
e|--------------------------------------------------|
B|--------------------------------------------------|
G|--------------------------------------------------|
D|-4-4-4-5-5-5-5-5-5-5-5/-9-9-9-9-9-9-7-7-7-7-7-7---|
A|-5-5-5-5-5-5-5-5-5-5-5/-9-9-9-9-9-9-7-7-7-7-7-7---|
D|-4-4-4-5-5-5-5-5-5-5-5/-9-9-9-9-9-9-7-7-7-7-7-7---|

Pre-chorus II
"Let's shake & burn..."
e|---------------------------------------------|
B|---------------------------------------------|
G|--77-6h7-7~--9-9-9-11-11-9-9---77---|X5|-----|
D|--00-0-0-0~--0-0-0-0--0--0-0---00------------|
A|---------------------------------------------|
D|---------------------------------------------|

Chorus
"We're not sleeping..."
e|--------------------------------------------------------------------------|
B|--------------------------------------------------------------------------|
G|------------------------4-4-4-4-4-4-4-4-----------------------------------|
D|-5-5-5-5-5-5-5-5-5-5-5--4-4-4-4-4-4-4-4--5-5-5-5-5-5-5-5/-9-9-9-9-9-9-9-9-|
A|-5-5-5-5-5-5-5-5-5-5-5--2-2-2-2-2-2-2-2--5-5-5-5-5-5-5-5/-9-9-9-9-9-9-9-9-|
D|-5-5-5-5-5-5-5-5-5-5-5-------------------5-5-5-5-5-5-5-5/-9-9-9-9-9-9-9-9-|

Solo
e|------10/-17~----15-14-------------17~---15-14-------|
B|---10------------------15~---14-15-------------15~---|
G|-7---------------------------------------------------|
D|-----------------------------------------------------|
A|-----------------------------------------------------|
D|-----------------------------------------------------|

Chorus
"We're not sleeping..."
e|--------------------------------------------------------------------------|
B|--------------------------------------------------------------------------|
G|------------------------4-4-4-4-4-4-4-4-----------------------------------|
D|-5-5-5-5-5-5-5-5-5-5-5--4-4-4-4-4-4-4-4--5-5-5-5-5-5-5-5/-9-9-9-9-9-9-9-9-|
A|-5-5-5-5-5-5-5-5-5-5-5--2-2-2-2-2-2-2-2--5-5-5-5-5-5-5-5/-9-9-9-9-9-9-9-9-|
D|-5-5-5-5-5-5-5-5-5-5-5-------------------5-5-5-5-5-5-5-5/-9-9-9-9-9-9-9-9-|

Outro
e|----------------------------------------------|--------------------------|
B|------------------------------------|END-ON|--|------5-------5-----------|
G|-7-7-7-7-7-7-7-7-----------------------7~~~---|----7---7---7---7---7--7~-|
D|-x-x-x-x-x-x-x-x---5-5-5-5-7-7-7-7-----x------|--7-------7-------7----5~-|
A|-5-5-5-5-5-5-5-5-0-5-5-5-5-7-7-7-7-----5~~~---|-----------------------5~-|
D|-----------------0-5-5-5-5-7-7-7-7------------|--------------------------|

& There you go.
This is my first tab.
I had a request, so I thought I'd give this a try.
Rate it, please!


E For Explosion is amazing, but it isn't the same.
Suggest correction
Creating personal tab
Creating personal tab
You can edit any tab online and save it as your Personal.

You can edit, replace or remove any tab part or add personal notes – all changes will be seen only by you.

Personal tabs can be accessed anytime from any device, even offline.
Learn more »
Give kudos to tab author, rate the tab!
1 2 3 4 5
comments
print report bad tab
2 comments total.
0 reply
TheBlazars 31 Nov 08, 2009 10:27 AM

On each chorus it's actually;
Sorry, it's NOT perfect.

e|-----------------------------------------------------------------------------|
B|-----------------------------------------------------------------------------|
G|------------------------4-4-4-4-4-4-4-4--------------------------------------|
D|-5-5-5-5-5-5-5-5-5-5-5--4-4-4-4-4-4-4-4--5-5-5-5-5-5-5-5/-7-7-7-7-7-7-7-7-7-|
A|-5-5-5-5-5-5-5-5-5-5-5--2-2-2-2-2-2-2-2--5-5-5-5-5-5-5-5/-7-7-7-7-7-7-7-7-7-|
D|-5-5-5-5-5-5-5-5-5-5-5-------------------5-5-5-5-5-5-5-5/-7-7-7-7-7-7-7-7-7-|

0 reply
Free2Live 115 Nov 16, 2009 12:01 AM

do you know how to update the tabs? you could just do that might make you're approval rating better, though i'm pretty sure everything other than that chorus muck up is pretty damn close to perfect, nicely done.

PS thanks for doin it in Drop D!

guest
You may want to rate the tab now too:
select rating
Wanna post a correction for this tab? Suggest correction