Oops, an error
Loading. Please wait.

Y Te Amo Tab

9 views 1 this week
no commentswrite comment
1 2 3 4 5
3 more votes to show rating
add to favorites
launch autoscroll
font size
0
reset
how to read this tab
guitar tuner
×
Best way to learn
"Y Te Amo"
Autoscroll
slow
fast
+/-
esc
set tempo
stop
e------------------------------------------
B---0-3-2-0-3-2-0-0---------0---0----------
G-2------------------2---2-2-2-2-2---------
D-----------------------------------4-4-2--
A------------------------------------------
E------------------------------------------

A                  C#m 
Nadie antes que tu, me a  amado tanto
Bm             E          
con esa pasión, que me amas tu
Bm   
cada día cada instante
C#m
eres lo mas importante
Bm            E
eres la razón, de mi existir...


A                  C#m
cuando tu no estas, me siento triste
Bm             E
solo a tu lado, soy feliz
Bm
pero cuando estas conmigo
C#m
de todo el mundo me olvido
Bm                        E
pues tan solo vivo, para ti...


     A               C#m   
Y te amo te amo, no vivo sin ti
          Bm        
nuestro amor es tan grande
     E 
te quiero a morir
     A               C#m
y te amo te amo, si vivo es por ti
        Bm
cuando juntos estamos
   E
me haces feliz
 
e------------------------------------------
B---0-3-2-0-3-2-0-0---------0---0----------
G-2------------------2---2-2-2-2-2---------
D-----------------------------------4-4-2--
A------------------------------------------
E------------------------------------------
A                  C#m
cuando tu no estas, me siento triste
Bm             E
solo a tu lado, soy feliz
Bm
pero cuando estas conmigo
C#m
de todo el mundo me olvido
Bm                        E
pues tan solo vivo, para ti...


     A               C#m   
Y te amo te amo, no vivo sin ti
          Bm        
nuestro amor es tan grande
     E 
te quiero a morir
     A               C#m
y te amo te amo, si vivo es por ti
        Bm
cuando juntos estamos
   E
me haces feliz


se sube un tono y se sigue la canción asi

     B               D#m
Y te amo te amo, no vivo sin ti
        C#m
nuestro amor es tan grande
     F# 
te quiero a morir
     B               D#m
y te amo te amo, si vivo es por ti
        C#m              F# 
cuando juntos estamos
       B
te amo

e-----------
B-0-2-5-4---
G-----------  y este es el requinteo final
D-----------
A-----------
E-----------

Esta es una cancion muy romanticona,asi que si se la 
quieren cantar a la persona que quieren, es una muy
 buena opcion.
sigan rokeando compillas
Suggest correction
Give kudos to tab author, rate the tab!
1 2 3 4 5
comments
print report bad tab
guest
You may want to rate the tab now too:
select rating
Wanna post a correction for this tab? Suggest correction