Oops, an error
Loading. Please wait.

Heart And Soul Bass Tab

7 views 1 this week
no commentswrite comment
1 2 3 4 5
2 more votes to show rating
add to favorites
launch autoscroll
font size
0
reset
guitar tuner
Autoscroll
slow
fast
+/-
esc
set tempo
stop
Help us to improve Ultimate-Guitar.com Take our survey!
×
Author
Heart and Soul
Originally recorded by The Cleftones this version by Jan and Dean 
Released in 1961 reached number 24 in UK.  Tab by bass50611.
Very much of the Surfing sound that was emerging in the early sixties
From the West Coast of The USA. Hope you like my tab. 
Symbol ‘.’ Are pause dots

Intro:
  ‘.’           ‘.’
G|-----------------------------|
D|-----------------------------|
A|-7-----------2/7-------------|
E|---------------------------7-|

Verse 1:                                                            (Break)
G|-----------------------------------------------------------------------|
D|-----------4--4-------------------4--4-------------------4--4----------|
A|-7----4----------4-5-6-7----4-----------4-5-6-7----4-----------4-5-6-7-|
E|---7----4----------------7----4-----------------7----4-----------------|

Vocal Interlude 1: (No Bass)

Verse 2:                                                            (Break)
G|-----------------------------------------------------------------------|
D|-----------4--4-------------------4--4-------------------4--4----------|
A|-7----4----------4-5-6-7----4-----------4-5-6-7----4-----------4-5-6-7-|
E|---7----4----------------7----4-----------------7----4-----------------|

Vocal Interlude 2:
G|---------|
D|---------|
A|-7---5-4-|
E|---------|

Bridge 1:
G|---------------------------------------------------------------------|
D|-7---------------------------4-5-6-7---------------------------------|
A|----9------9-------7---4---6----------9-------9-----7---4---6--4-5-6-|
E|--------9------7--------------------------9------7-------------------|

Verse 3:
G|--------------------------------------------------------------|
D|-----------4--4-------------------4--4-------------------4--4-|
A|-7----4----------4-5-6-7----4-----------4-5-6-7----4----------|
E|---7----4----------------7----4-----------------7----4--------|

                         (Break)
G|---------------------------------VOCAL INTERLUDE---------------|
D|-------7-------------------------------------------4-4-4-------|
A|-4-5-6---9---9---9--4-5-7--------------2/7---------------4-5-6-|
E|-----------9-------7-------------------------------------------|

Instrumental:
G|-----------------------------------------------------------------------|
D|-----------4--4-------------------4--4-------------------4--4----------|
A|-7----4----------4-5-6-7----4-----------4-5-6-7----4-----------4-5-6-7-|
E|---7----4----------------7----4-----------------7----4-----------------|

Vocal Interlude 4:
G|-----------|
D|-----------|
A|-7--7--5-4-|
E|-----------|

Bridge 2:
G|---------------------------------------------------------------------|
D|-7---------------------------4-5-6-7---------------------------------|
A|----9------9-------7---4---6----------9-------9-----7---4---6--4-5-6-|
E|--------9------7--------------------------9------7-------------------|

Verse 4:
G|--------------------------------------------------------------|
D|-----------4--4-------------------4--4-------------------4--4-|
A|-7----4----------4-5-6-7----4-----------4-5-6-7----4----------|
E|---7----4----------------7----4-----------------7----4--------|

Outro:                         (END)
G|--------------------------------|
D|-------7------------------------|
A|-4-5-6---9-----9---9--4-7---2/7-|
E|------------9--------7----------|

Symbol '.' are pauses
Suggest correction
Give kudos to tab author, rate the tab!
1 2 3 4 5
comments
print report bad tab
guest
You may want to rate the tab now too:
select rating
Wanna post a correction for this tab? Suggest correction