Oops, an error
Loading. Please wait.

Crocketts Theme Bass Tab

version 1
version 1

Whole song

Interactive

2,052 views 1 this week
1 commentread comment
1 2 3 4 5
1 last vote to show rating
add to favorites
launch autoscroll
font size
0
reset
guitar tuner
Autoscroll
slow
fast
+/-
esc
set tempo
stop
Help us to improve Ultimate-Guitar.com Take our survey!
×
Author
Difficulty
Tuning
novice
D A D G B E
Intro
G|---------------------------------------|
D|---------------------------------------|
A|--5-5-8-8-------------6-6-6-6-3-3------|
D|----------10-10-10-10-------------5-5--|

G|-------------------|
D|-------------------|
A|--5-5-5-5-5-5-5-5--|
D|-------------------|


Verse
G|---------------------------------------|
D|---------------------------------------|
A|--5-5-8-8-------------6-6-6-6-3-3------|  X2
D|----------10-10-10-10-------------5-5--|

G|-------------------|
D|-------------------|
A|--5-5-5-5-5-5-5-5--|
D|-------------------|

G|---------------------------------------|
D|---------------------------------------|
A|--5-5-8-8-------------6-6-6-6-3-3------|
D|----------10-10-10-10-------------5-5--|

G|---------------------------------------|
D|---------------------------------------|
A|--5-5-8-8-------------6-6-6-6-6-6------|
D|----------10-10-10-10-------------8-8--|


Chorus
G|-------------------|
D|-------------------|
A|--------------3-3--|  X3
D|--3-3-3-3-3-3------|

G|-------------------|
D|-------------------|
A|-------------------|
D|--3-3-3-3-7-7-7-7--|


Verse
G|---------------------------------------|
D|---------------------------------------|
A|--5-5-8-8-------------6-6-6-6-3-3------|  X2
D|----------10-10-10-10-------------5-5--|

G|-------------------|
D|-------------------|
A|--5-5-5-5-5-5-5-5--|
D|-------------------|

G|---------------------------------------|
D|---------------------------------------|
A|--5-5-8-8-------------6-6-6-6-3-3------|
D|----------10-10-10-10-------------5-5--|

G|---------------------------------------|
D|---------------------------------------|
A|--5-5-8-8-------------6-6-6-6-6-6------|
D|----------10-10-10-10-------------8-8--|


Chorus
G|-------------------|
D|-------------------|
A|--------------3-3--|  X3
D|--3-3-3-3-3-3------|

G|-------------------|
D|-------------------|
A|-------------------|
D|--3-3-3-3-7-7-7-7--|


Outro
G|---------------------------------------|
D|---------------------------------------|
A|--5-5-8-8-------------6-6-6-6-3-3------|  X2
D|----------10-10-10-10-------------5-5--|

G|-------------------|
D|-------------------|
A|--5-5-5-5-5-5-5-5--|  Repeat till end
D|-------------------|


*NOTICES*
the reason why it's drop D is because there's sometimes
a real low D, for example at the very beginning of a verse,
i haven't placed a -0- there but you know when you have to...
btw i have tabbed the short version of Crockett's Theme so if 
you play with youtube you just have to figure it out on your own ;)...
Suggest correction
Give kudos to tab author, rate the tab!
1 2 3 4 5
comments
print report bad tab
1 comment total.
0 reply
PhilipBass 12 Jun 03, 2013 03:37 PM

Not at all, sorry.

I will make a better tab soon

guest
You may want to rate the tab now too:
select rating
Wanna post a correction for this tab? Suggest correction