Oops, an error
Loading. Please wait.

Der Alte Mann Tab

2,266 views 3 this week
no commentswrite comment
1 2 3 4 5
please rate
add to favorites
launch autoscroll
font size
0
reset
how to read this tab
guitar tuner
Autoscroll
slow
fast
+/-
esc
set tempo
stop
Help us to improve Ultimate-Guitar.com Take our survey!
×
Author
   E            A     E      E            A       E
E|-----0------|-0--0-0--0--|-----0------|-0--0-0--0--|
B|-----0------|-2--2-2--0--|-----0------|-2--2-2--0--|
G|-----1------|-2--2-2--1--|-----1------|-2--2-2--1--|
D|-2-2-1------|------------|-2-2--------|------------|
A|-2-2--------|------------|-2-2--------|------------|
E|-0-0--------|------------|-0-0--------|------------|

  E            A       E   Bsus4  B
|-----0------|-0--0-0--0--|-2-2-2-2-2--|-2----------|
|-----0------|-2--2-2--0--|-5-5-5-4-4--|-4----------|
|-----1------|-2--2-2--1--|-4-4-4-4-4--|-4----------|
|-2-2-1------|------------|-4-4-4-4-4--|-4----------|
|-2-2--------|------------|-2-2-2-2-2--|-2----------|
|-0-0--------|------------|-2-2-2-2-2--|-2----------|
Suggest correction
Give kudos to tab author, rate the tab!
1 2 3 4 5
comments
print report bad tab
guest
You may want to rate the tab now too:
select rating
Please do not post tabs as comments. Select "correction" instead!