Oops, an error
Loading. Please wait.

Kiffen Ist Gesund Tab

2,701 views 1 this week
no commentswrite comment
1 2 3 4 5
please rate
add to favorites
launch autoscroll
font size
0
reset
how to read this tab
guitar tuner
Autoscroll
slow
fast
+/-
esc
set tempo
stop
Help us to improve Ultimate-Guitar.com Take our survey!
×
This is a quiet little song from Jan Hegenberg and is a Hidden Track on his first Album...
This is my first Tab, I made this one, because I searched a long time and did not find 
Tabs of this "song"..., so, here it is:

e|--------2-------|--------0-------|--------2-------|-------2--------|
h|--------3-------|--------2-------|--------3-------|-------2--------|
G|-----2----2-----|-----2----2-----|-----4----4-----|----2----2------|
D|-0--------------|----------------|----------------|----------------|
A|----------------|-0--------------|-2--------------|----------------|
E|----------------|----------------|----------------|-2--------------|


e|--------3-------|--------2-------|--------0-------|--------0-------|
h|--------0-------|--------3-------|--------2-------|--------2-------|
G|-----0----0-----|------2---2-----|-----2----2-----|-----2-----break|
D|----------------|-0--------------|-2--------------|-2--------------|
A|----------------|----------------|----------------|----------------|
E|-3--------------|----------------|----------------|----------------|

little Break... than Second (nearly the same):

e|--------2-------|--------0-------|--------2-------|-------2--------|
h|--------3-------|--------2-------|--------3-------|-------2--------|
G|-----2----2-----|-----2----2-----|-----4----4-----|----2----break--|
D|-0--------------|----------------|----------------|----------------|
A|----------------|-0--------------|-2--------------|----------------|
E|----------------|----------------|----------------|-2--------------|


e|--------3-------|--------2-------|--------0-------|-------2--------|
h|--------0-------|--------3-------|--------2-------|-------3--------|
G|-----0----0-----|------2---break-|-----2----2^2---|-------2--------|
D|----------------|-0--------------|-2--------------|-------0--------|
A|----------------|----------------|----------------|----------------|
E|-3--------------|----------------|----------------|----------------|

(2^2 means longer holding...)
Here the Akkords:

#1
     D
Mein Freund und ich,
    A
Wir sind gespannt,
     Bm                  F#m
denn gleich gehts wieder rund,
        G              D
mit ein wenig Gras und einer Bong(en),
A
Kiffen ist gesund.

#2
D
Volle Köpfe,
A
rote Augen,
Bm            F#m
ein trockener Mund,
    G
das schmeckt uns und
    D
das macht uns Spass,
     A          D
denn Kiffen ist GESUND.

----------------------------mfg|Basshinzu---------------------------------------
Suggest correction
Give kudos to tab author, rate the tab!
1 2 3 4 5
comments
print report bad tab
guest
You may want to rate the tab now too:
select rating
Please do not post tabs as comments. Select "correction" instead!