Oops, an error
Loading. Please wait.

Ankie chords

by Jan Rot
73 views 1 this week
no commentswrite comment
1 2 3 4 5
3 more votes to show rating
add to favorites
×
Save as Personal and add changes to this tab that will be seen only by you. Learn more ›
×
You can save this tab as Personal to edit and correct it or add notes. All changes will be seen only by you. Learn more »
launch autoscroll
font size
0
reset
transpose
0
reset
simplify chords
display chords
guitar tuner
edit
Autoscroll
slow
fast
+/-
esc
set tempo
stop
Author
Difficulty
About this tab version
This song was never placed on the site and is a dutch cover of angie by the rolling stones. Was this info helpful? Yes No
Strumming
There is no strumming pattern for this song yet. and get +5 IQ
[intro]
                          Am                            E7sus2
e||--------------------|--0--0--0-----3-0-----------|---------0-------0----0------|
B||--------------------|--1-----1-----1-------1-----|-------3---3-----3-----------|
G||--------------------|--2-----2----------2--------|-----4-------4---4-------4-0-|
D||--------------------|--2---------2-----------2-2-|---------------------------x-|
A||----------1h2-------|----------------------------|-----------------------------|
E||--------------------|----------------------------|--0------------4-------------|


Gsus4          FsuF4          F       FsusC/E
|---------3---------------1---|------1------------0----------||
|-------3---3-----1--1------1-|------------1------1------1---||
|-----5-------5---3--2--------|----2-------0-0-------------0-||
|--5------------5-3--3--------|--3-------3---2---------0-----||
|-----------------------------|--------3-------------2-------||
|-----------------------------|------------------------------||



[verse 1]

Am Asus4  E  E7  G       F                  C    C/B
Ankie,    Ankie, ik zit hier eenzaam op een bankie
Am Asus4  E  E7 G           F          C    C/B
Ankie, Ankie, en word zo stijf als een plankie
      G                               Dm                  Am
Uren wacht ik voor je huis, er brandt licht, maar ben je thuis?
 C       F          G
Doe nou open, alsjeblieft!
Am Asus4  E  E7  G      F                     C     C/B
Ankie,    Ankie, zeg is dat niet de fiets van Frankie?


[verse 2]

Am Asus4  E  E7 G           F                 C    C/B
Frankie, spermabankie, blijf met je poten van Ankie
Am Asus4  E  E7 G           F                             C    C/B
Frankie, 't is mijn Ankie! Dit heet een beetje stank voor dankie
         G                                Dm              Am
Wat ben jij nou voor een vriend, dit heb ik toch niet verdiend?
 C           F           G
Dit is mijn ergste fantasie!


[bridge]

    Dm                  Am
He Ankie, ik ga aan de drankie
 Dm                          Am
Als je nu niet naar beneden komt
    Dm                             Am
En jij, lieve vriend, jou schop ik mankie,
 C        F               G
Jongens, doe nou niet zo stom!


[outro]

Am Asus4  E  E7 G           F            C    C/B
Ankie, Frankie, 't is jouw schuld dat ik jankie
Am Asus4  E  E7 G           F                C    C/B
Ankie, Frnnkie, geef me hoop, desnoods.. een sprankie

            
            
Suggest correction
Creating personal tab
Creating personal tab
You can edit any tab online and save it as your Personal.

You can edit, replace or remove any tab part or add personal notes – all changes will be seen only by you.

Personal tabs can be accessed anytime from any device, even offline.
Learn more »
Give kudos to tab author, rate the tab!
1 2 3 4 5
comments
print report bad tab
guest
You may want to rate the tab now too:
select rating
Wanna post a correction for this tab? Suggest correction