Oops, an error
Loading. Please wait.

I Wont Give Up Tab

version 1
version 1

Whole song

27,055 views 15 this week
no commentswrite comment
1 2 3 4 5
x 6
add to favorites
launch autoscroll
font size
0
reset
how to read this tab
guitar tuner
Autoscroll
slow
fast
+/-
esc
set tempo
stop
Help us to improve Ultimate-Guitar.com Take our survey!
×
Difficulty
intermediate
Intro
	D  		    A		       G		  A

|--------2--0------|------------------|--------2--0------|-----------------|
|--------3--3--3---|------------------|--------3--3--3---|-----------------|
|-----2-----------2|------------------|-----2-----------2|-----------------|
|--0---------------|------------------|--0---------------|-----------------|
|------------------|------------------|------------------|-----------------|
|------------------|--2--3--5--5------|------------------|--2--3--5--------|

Vers

Dont tell me love is something you won't try again,thats just not true.
	D  		    A			G		   A

|-------------2----|-------------0----|--------3---------|--------0--5--0--5|
|-------3-----3--3-|-------------2--2-|------0---0------0|--------2---------|
|-----2----2-------|--------2-------- |---0-----------0--|-----2------------|
|--0---------------|-----2-----2------|------------------|------------------|
|------------------|--0---------------|------------------|--0---------------|
|------------------|------------------|-3----------------|------------------|
But baby right now maybe what you needs a friend,well im here for you.

	D  		    A			G		   A
|-------------2----|-------------0----|--------3---------|--------0--5--0--5|
|-------3-----3--3-|-------------2--2-|------0---0------0|--------2---------|
|-----2----2-------|--------2-------- |---0-----------0--|-----2------------|
|--0---------------|-----2-----2------|------------------|------------------|
|------------------|--0---------------|------------------|--0---------------|
|------------------|------------------|-3----------------|------------------|

Ref

I will be by your side, if ever you fall
	D  		       A		   
|-------------2------|-------------0------|
|--------3----3---3--|-------------2--2---|
|-----2-----2---2---2|--------2-----------|
|--0-----------------|-----2-----2--------|
|--------------------|--0-----------------|
|--------------------|--------------------|

deep in the dead of night,whenever you call.
|--------------2-----|-------------------|--------------------|
|--------0-----0--0--|-----------0-------|--------0-----0-----|
|-----------0--------|--------0----------|-----------2--------|
|-----0--------------|-----0-------------|-----0--------------|
|--2-----------------|-------------------|--0-----------------|
|--------------------|--3----------------|--------------------|

And I won't change my mind, no I'll see you through,
	D  		       A		   
|-------------2------|-------------0------|--------------------|------------0------|
|--------3----3---3--|-------------2--2---|--------------------|-------3---------3-|
|-----2-----2---2---2|--------2-----------|--------------------|-------------------|
|--0-----------------|-----2-----2--------|------4-------4-----|----0--------------|
|--------------------|--0-----------------|----0---0---0---0---|--2-------2----2---|
|--------------------|--------------------|--2-------2-------2-|-------------------|

and I won't give up, no I won't
    G       		  A		  G		   
|------------------|------------------|------------------|
|------------------|------------------|------------------|
|-----0------------|--------2---------|-----0------------|
|---0---0----------|-----2------------|---0---0----------|
|------------------|---0--------------|------------------|
|-3----------------|------------------|-3----------------|

 give up, I won't give up
	A
|------------------|------------------|------------------|
|------------------|------------------|------------------|
|--------2---------|-----0------------|--------2---------|
|-----2------------|---0---0----------|-----2------------|
|---0--------------|------------------|---0--------------|
|------------------|-3----------------|------------------|

   on you.	
	D  		    A
|--------2--0------|------------------|
|--------3--3--3---|------------------|
|-----2-----------2|------------------|
|--0---------------|------------------|
|------------------|------------------|
|------------------|--2--3--5--5------|


Vers


You need someone who knows you from the inside out,the way I do.
	D  		    A			G		   A

|-------------2----|-------------0----|--------3---------|--------0--5--0--5|
|-------3-----3--3-|-------------2--2-|------0---0------0|--------2---------|
|-----2----2-------|--------2-------- |---0-----------0--|-----2------------|
|--0---------------|-----2-----2------|------------------|------------------|
|------------------|--0---------------|------------------|--0---------------|
|------------------|------------------|-3----------------|------------------|

I've seen you walk the wire never looking down,I believe in you.
	D  		    A			G		   A
|-------------2----|-------------0----|--------3---------|--------0--5--0--5|
|-------3-----3--3-|-------------2--2-|------0---0------0|--------2---------|
|-----2----2-------|--------2-------- |---0-----------0--|-----2------------|
|--0---------------|-----2-----2------|------------------|------------------|
|------------------|--0---------------|------------------|--0---------------|
|------------------|------------------|-3----------------|------------------|

Ref

I will be by your side, if ever you fall
	D  		       A		   
|-------------2------|-------------0------|
|--------3----3---3--|-------------2--2---|
|-----2-----2---2---2|--------2-----------|
|--0-----------------|-----2-----2--------|
|--------------------|--0-----------------|
|--------------------|--------------------|

deep in the dead of night,whenever you call.
|--------------2-----|-------------------|--------------------|
|--------0-----0--0--|-----------0-------|--------0-----0-----|
|-----------0--------|--------0----------|-----------2--------|
|-----0--------------|-----0-------------|-----0--------------|
|--2-----------------|-------------------|--0-----------------|
|--------------------|--3----------------|--------------------|

And I won't change my mind, no I'll see you through,
	D  		       A		   
|------------2------|------------0------|-------------------|-----------0------|
|-------3----3---3--|------------2--2---|-------------------|------3---------3-|
|----2-----2---2---2|-------2-----------|-------------------|------------------|
|-0-----------------|----2-----2--------|-----4-------4-----|---0--------------|
|-------------------|-0-----------------|---0---0---0---0---|-2-------2----2---|
|-------------------|-------------------|-2-------2-------2-|------------------|

and I won't give up, no I won't
    G       		  A		  G		   
|------------------|------------------|------------------|
|------------------|------------------|------------------|
|-----0------------|--------2---------|-----0------------|
|---0---0----------|-----2------------|---0---0----------|
|------------------|---0--------------|------------------|
|-3----------------|------------------|-3----------------|

 give up, I won't give up
	A		   G			A
|------------------|------------------|------------------|
|------------------|------------------|------------------|
|--------2---------|-----0------------|--------2---------|
|-----2------------|---0---0----------|-----2------------|
|---0--------------|------------------|---0--------------|
|------------------|-3----------------|------------------|
 on you.
	D
|--------2-0-------|------------------|------------------|
|------3-3---3-3---|---------0--------|------------------|
|----2-----------2-|------0--0--0-----|----2--0----------|
|--0---------------|------------------|---------2--------|
|------------------|------------------|--0---------------|
|------------------|--3---------------|------------------|

	D
|--------2---------|-------2---0------|-------3----------|
|--------3--3------|----0---------3---|----3--3----------|
|-----2------------|------------------|--0--------0------|
|--0---------------|--4---------------|---------------0--|
|------------------|------------------|-----------0---0--|
|------------------|------------------|------------------|




I will be by your side, If ever you fall deep in the dead of the night.     ( small pause )
	D  		       A		 EM	  	  G			   
|---2--------------|------------------|x-----------------|----3------------|
|------------------|----2-------------|x-----------------|-----------------|
|---2--------------|----2-------------|------------------|-----------------|
|------------------|----2-------------|---2--------------|-----------------|
|------------------|------------------|---2--------------|----2------------|
|------------------|------------------|------------------|----3------------|

And I won't give up, no I won't
    G       		  A		  G		   
|------------------|------------------|------------------|
|------------------|------------------|------------------|
|-----0------------|--------2---------|-----0------------|
|---0---0----------|-----2------------|---0---0----------|
|------------------|---0--------------|------------------|
|-3----------------|------------------|-3----------------|
 give up, I won't give up,
	A		    G		     A
|------------------|------------------|------------------|
|------------------|------------------|------------------|
|--------2---------|-----0------------|--------2---------|
|-----2------------|---0---0----------|-----2------------|
|---0--------------|------------------|---0--------------|
|------------------|-3----------------|------------------|

You can call it love, but I won't give up,
   G       		  A		  G		       A
|------------------|------------------|------------------|------------------|
|-------3----------|------------------|------------------|------------------|
|-----2---2--------|--------0---------|-----0------------|--------2---------|
|---0--------------|-----0------------|---0---0----------|-----2------------|
|------------------|---2--------------|------------------|---0--------------|
|------------------|------------------|-3----------------|------------------|

on you.
	A	     	D
|--2--2--0--2------|------------------|
|--3-----------3---|------------------|
|--2---------------|------------------|
|--0---------------|------------------|
|------------------|------------------|
|------------------|--2--3--5---------|


	D
|-----2------------|
|-----3------------|
|-----2------------|
|------------------|
|------------------|
|------------------|

Suggest correction
comments
print report bad tab
guest
You may want to rate the tab now too:
select rating
Wanna post a correction for this tab? Suggest correction