Oops, an error
Loading. Please wait.

Tightrope Bass Tab

6,387 views 36 this week
no commentswrite comment
1 2 3 4 5
please rate
add to favorites
launch autoscroll
font size
0
reset
guitar tuner
Autoscroll
slow
fast
+/-
esc
set tempo
stop
Help us to improve Ultimate-Guitar.com Take our survey!
×
Author
Difficulty
novice
The song is composed of three main riffs that alternate

Main Riff:

G|--------10--10--8--8-----------------------------|
D|----------------------10--10--8--8------8--------|
A|--(8)--8------------------------------11-----8---|
E|-------------------------------------------------|

Second Riff


G|--------11--11--9--9-----------------------------|
D|----------------------11--11--9--9------9--------|
A|--(9)--9------------------------------12-----9---|
E|-------------------------------------------------|

Third Riff:


G|--------15--15--13--13------------------------------|
D|----------------------15--15--13--13------13--------|
A|--(13)--13------------------------------16-----13---|
E|----------------------------------------------------|

Then just play some fills occasionally based on these patterns.
Suggest correction
Give kudos to tab author, rate the tab!
1 2 3 4 5
comments
print report bad tab
guest
You may want to rate the tab now too:
select rating
Wanna post a correction for this tab? Suggest correction