Oops, an error
Loading. Please wait.

Aint No Right Bass Tab

version 2
version 2

Whole song

Interactive

1,187 views 3 this week
no commentswrite comment
1 2 3 4 5
accurate
x 4
add to favorites
launch autoscroll
font size
0
reset
guitar tuner
Autoscroll
slow
fast
+/-
esc
set tempo
stop
Help us to improve Ultimate-Guitar.com Take our survey!
×
Contributor
Intro
G|-----------------------|
D|-----------------------|
A|--------------------4-2|x2 
E|0h2-2-2-2-2-2-2-2-2----|   Rest

Main Riff
G|------------------------|
D|------------------------|
A|4-2---------------------|x4
E|----0h2-2-2-2-2-2-2-2-2-|

Chorus
G|---------14-------14-----------------------------------|
D|------14----14-14--------------------------------------|
A|-0-12----------12----12-----12-12-15-15-15-15-15-------|
E|------------------------12/----------------------------|

Main Riffx4
Chorus x1
Main Riffx8
Chorus x1
Outro
G|------------------|
D|------------------|
A|------------------|x1 
E|0h2-2-2-2-2-0-2-2-|
comments
print report bad tab
I want to post or [tab]
guest
You may want to rate the tab now too:
select rating
Please do not post tabs as comments. Select "correction" instead!