Oops, an error
Loading. Please wait.

Been Caught Stealin Bass Tab

4,074 views 1 this week
3 commentsread comments
1 2 3 4 5
accurate
x 4
add to favorites
launch autoscroll
font size
0
reset
guitar tuner
Autoscroll
slow
fast
+/-
esc
set tempo
stop
Help us to improve Ultimate-Guitar.com Take our survey!
×
#----------------------------------PLEASE NOTE---------------------------------#
#This file is the author's own work and represents their interpretation of the #
#song. You may only use this file for private study, scholarship, or research. #
#------------------------------------------------------------------------------##
From: PePPeRs01@aol.com
Date: Sun, 9 Jul 1995 19:12:21 -0400
Subject: Been Caught Stealin-by Janes Addiction btab

Been Caught Stealin by Janes Addiction

This is a cool song by a cool band who broke up a few years back :(
but still Perry Farrels music lives on.  Too bad Porno for Pyros isnt half
the band Janes Addiction was!!

this is the main rif for most of the song

g---------------------------------------
d---------------------------------------
a---------------------------------------
e-0-3-3---0-3--0-0-3--0-0-3-----

during "walk right through the door" this is played

g------------------------------------
d------------------------------------
a--3-3----3---1--3--1-----------
e-------------------------1--3----

then in "hey allright" this is played

g-----------------------------------------------
d---------------5------------------------------
a--3--------3-----------5--6-----------------
e----------------------------------6---5-------

there enjoy
if you know the tabs for Jane Says, or any other janes addiction song write
me
PePPeRs 01@aol.com

Suggest correction
What's this?
You can suggest a correction to this tab. Community and Mods will review your correction and vote to approve or reject it.
comments
print report bad tab
3 comments total.
0 reply
primuslover92 216 wrote on March 18 2009, 12:52 pm

the intro riff is off it is more like this:

G-----------------------
D-----------------------
A-----------------------
E-3-1-0---3-1-0--3-0-1-3

0 reply
primuslover92 216 wrote on March 18 2009, 12:52 pm

the intro riff is off it is more like this:

G-----------------------
D-----------------------
A-----------------------
E-3-1-0---3-1-0--3-0-1-3

0 reply
primuslover92 216 wrote on March 18 2009, 12:52 pm

the intro riff is off it is more like this:

G-----------------------
D-----------------------
A-----------------------
E-3-1-0---3-1-0--3-0-1-3

guest
You may want to rate the tab now too:
select rating
Please do not post tabs as comments. Select "correction" instead!