Oops, an error
Loading. Please wait.

Stop tab

version 3
version 3

Whole song

Interactive

9,389 views 9 this week
no commentswrite comment
1 2 3 4 5
x 9
add to favorites
×
Save as Personal and add changes to this tab that will be seen only by you. Learn more ›
×
You can save this tab as Personal to edit and correct it or add notes. All changes will be seen only by you. Learn more »
launch autoscroll
font size
0
reset
how to read this tab
guitar tuner
edit
Autoscroll
slow
fast
+/-
esc
set tempo
stop
Author
Difficulty
Unregistered
intermediate
#----------------------------------PLEASE NOTE---------------------------------#
#This file is the author's own work and represents their interpretation of the #
#song. You may only use this file for private study, scholarship, or research. #
#------------------------------------------------------------------------------#

From: Axel Hoe Wei Yang
Song: Stop! (As appear on the album Kettle whistle)
Artist: Jane’s Addiction

The version I’ve decided to transcribe appears on the kettle whistle album and I’ve 
the guitar parts for one guitar player. I did not transcribed the solo part as there are
parts I’m still working on and I personally feel that the solo part is the part to get
creative on and it’s not right to copy someone else’s solo. To get the sound, use a PRS
Custom (if you can afford it) plug into a Marshall JCM 900 with Boss Turbo Distortion
and DD-3 Delay. Please email me at rollercoaster27@gmail.com if you have any enquiries.
Enjoy and rock on!

[INTRO RIFF 1]
E|-------------------------------------------------------|
B|-------------------------------------------------------|
G|--7-x-7-x-7-x-7-xx-6-/-7-xx-7-x-7-x-7-xx-8-8-8-8-8-8---|
D|--6-x-6-x-6-x-6-xx-5-/-6-xx-6-x-6-x-6-xx-7-7-7-7-7-7---|
A|--7-x-7-x-7-x-7-xx-6-/-7-xx-7-x-7-x-7-xx-8-8-8-8-8-8---|
E|-------------------------------------------------------|

[INTRO RIFF 2]
E|---------------------|-------------------|---------------------|-----|
B|---------------------|-------------------|---------------------|-----|
G|---------------------|-------------------|---------------------|-----|
D|--9-9-----7-7--------|--9-9-----7-7-7----|--9-9-----7-7--------|--9--|
A|--7-7--9--5-4-7-/-9--|--7-7--9--5-5-4-7--|--7-7--9--5-4-7-/-9--|--7--|
E|-------7------5-/-7--|-------7--------5--|-------7------5-/-7--|-----|

[INTRO RIFF 3]
E|------------------------------|------------------------------|
B|--14b15-14b15-12-14-14-12-----|--14b15-14b15-12-14-14-12-----|
G|--14b16-14b16-12-14-14-12h13--|--14b16-14b16-12-14-14-12h13--|
D|------------------------------|------------------------------|
A|------------------------------|------------------------------|
E|------------------------------|------------------------------|

E|---------------------------------------|
B|--14b15-14b15-12-14-14-----------------|
G|--14b16-14b16-12-14-14-14h15p14p12-14--|
D|-----------------------------------14--|
A|---------------------------------------|
E|---------------------------------------|

[VERSE]
E|-----------------|----------------|
B|-----------------|----------------|
G|-----------------|----------------|
D|--9-9-9-9-9-9-9--|----------------|
A|--7-7-7-7-7-7-7--|--5-5-5—-7-7-7--|
E|-----------------|--3-3-3—-5-5-5--|

[INTRO RIFF 1]
E|-------------------------------------------------------|
B|-------------------------------------------------------|
G|--7-x-7-x-7-x-7-xx-6-/-7-xx-7-x-7-x-7-xx-8-8-8-8-8-8---|
D|--6-x-6-x-6-x-6-xx-5-/-6-xx-6-x-6-x-6-xx-7-7-7-7-7-7---|
A|--7-x-7-x-7-x-7-xx-6-/-7-xx-7-x-7-x-7-xx-8-8-8-8-8-8---|
E|-------------------------------------------------------|

[INTRO RIFF 3 WITH VARIATIONS]
E|------------------------------|------------------------------|
B|--14b15-14b15-12-14-14-12-----|--14b15-14b15-12-14-14-12-----|
G|--14b16-14b16-12-14-14-12h13--|--14b16-14b16-12-14-14-12h13--|
D|------------------------------|------------------------------|
A|------------------------------|------------------------------|
E|------------------------------|------------------------------|

                         maintain bend
E|-----------------------------15------------------------|
B|--14b15-14b15-12-14-14----------15---------------------|
G|--14b16-14b16-12-14-14-14b16-------16pb14p12----12-14--|
D|---------------------------------------------14--------|
A|-------------------------------------------------------|
E|-------------------------------------------------------|

[VERSE]
E|-----------------|----------------|
B|-----------------|----------------|
G|-----------------|----------------|
D|--9-9-9-9-9-9-9--|----------------|
A|--7-7-7-7-7-7-7--|--5-5-5—-7-7-7--|
E|-----------------|--3-3-3—-5-5-5--|

[INTRO RIFF 1]
E|-------------------------------------------------------|
B|-------------------------------------------------------|
G|--7-x-7-x-7-x-7-xx-6-/-7-xx-7-x-7-x-7-xx-8-8-8-8-8-8---|
D|--6-x-6-x-6-x-6-xx-5-/-6-xx-6-x-6-x-6-xx-7-7-7-7-7-7---|
A|--7-x-7-x-7-x-7-xx-6-/-7-xx-7-x-7-x-7-xx-8-8-8-8-8-8---|
E|-------------------------------------------------------|

The slow part
E|-------------|---------------|---------------|----------------|
B|-------------|---------------|---------------|----------------|
G|--7-------7--|--8-7-------7--|--8-7-------7--|--8-7-------7---|
D|--6-----6----|--7-6-----6----|--7-6-----6----|--7-6-----6-----|
A|--7---7------|--8-7---7------|--8-7---7------|--8-7---7-------|
E|----0--------|------0--------|------0--------|------0---------|

You can do your own variations for this part, but this is what Dave plays in the song.
E|--------------------|--------------------------|
B|--------------------|--------------------------|
G|--7-/-9-9-9-9—-9-9--|--9-/-11-11-11-11—-11-11--|
D|--------------------|--------------------------|
A|--5-/-7-7-7-7—-7-7--|--7-/-9—-9—-9—-9---9—-9---|
E|--------------------|--------------------------|

E|---------------------------|---------------------------|
B|---------------------------|---------------------------|
G|--11-/-12-12-12-12—-12-12--|--12-/-14-14-14-14—-14-14--|
D|---------------------------|---------------------------|
A|--9--/-10-10-10-10—-10-10--|--10-/-12-12-12-12—-12-12--|
E|---------------------------|---------------------------|

E|----------------------------|--0--|--3---|
B|----------------------------|--0--|--3---|
G|--12-11-9-/-11-9-7-/-9-\-7--|--1--|--0---|
D|----------------------------|--2--|--0---|
A|--10-9—-7-/-9—-7-5-/-7-\-5--|--2--|--2---|
E|----------------------------|--0--|--3---|

I forgot the number of times you repeat the open E and G but you shouldn’t have problems 
that out. Play INTRO RIFF 2 once and there comes the solo part, this is the creative
so I won’t bother tabbing it out. After the solo part, play E and D two times where
Perry sings “Ooo OH, ooo oh, oo oh, o oh” and plays the INTRO RIFF 2 and INTRO RIFF
3 once and 
the end of the song.

************************************

| x   Dead note
| /   Slide up
| b   Bend
| h   Hammer-on
| p   Pull-off
| pb  Pre-bend
| \   Slide down

************************************

            
            
Suggest correction
Creating personal tab
Creating personal tab
You can edit any tab online and save it as your Personal.

You can edit, replace or remove any tab part or add personal notes – all changes will be seen only by you.

Personal tabs can be accessed anytime from any device, even offline.
Learn more »
comments
print report bad tab
guest
Wanna post a correction for this tab? Suggest correction