Oops, an error
Loading. Please wait.

Suffer Some Bass Tab

version 1
version 1

Whole song

387 views 1 this week
no commentswrite comment
1 2 3 4 5
please rate
add to favorites
launch autoscroll
font size
0
reset
guitar tuner
Autoscroll
slow
fast
+/-
esc
set tempo
stop
Help us to improve Ultimate-Guitar.com Take our survey!
×
Come in after 0:08 (guitar intro)

RIFF 1

G|---------------------------------------------------------|
D|---------------------------------------------------------|
A|-----------5-----------5--------------5-----------5------|
E|-0-0-5h7------0-5h7------0-0-5h7----------0-5h7-----/12--|

Don’t hit the string when you slide up to 12 just slide your finger up the fret board
And hit the string when you slide down again.

RIFF 2
G|-----------------------------|
D|------------------------5h7--|
A|-----------5------5h7--------|
E|-0-0-5h7----5h7--------------|

RIFF 2b
G|----------------------------------|
D|-----------------------5h7-5h7----|
A|----------5------5h7--------------|
E|0-0-5h7---5h7---------------------|

CHORUS
G|-------------------------------------|
D|-------------------------------------|
A|---5/12---7/12------3/7^----3/7^-----|
E|-5-------7-------3----------3--------|

ALTERNATE 
G|------------------|
D|--------------5---|
A|------5-6-7-------|
E|-5-7--------------|
Listen carefully to the song the 5 on the D-string is there but its played softly and really quick


ALTERNATE 2
G|----------------------|
D|----------------------|
A|-------5-6-7-6-5------|
E|-5-7---------------7--|

BRIDGE
G|--------7-5-------------------|
D|------------6------5h7--------|
A|---------------7-7------------|
E|---5-5-------------------3-3--|

EXTRA SOLO RIFF
G|----------------------------------------------------------------------|
D|---6-6-6-6-6-6-6-6-R-5-5-5-5-5-5-5-5-R-4-4-4-4-4-4-4-4----------------|
A|----------------------------------------------------------------------|
E|----------------------------------------------------------------------|

OUTRO
G|----------------------------------------------------------------|
D|----------------------------------------------------------------|
A|---/12----/12-----/12------/12--------3/9^--3/9^----3/9^--------|
E|-5------5-------7-------7--------3-------3--------3-------------|


You play it like this:

Start after (0:08)
RIFF 1 x 3
RIFF 2 x 3
RIFF 2b x 1
RIFF 2 x 3
CHORUS x 2
RIFF 1 x 2
ALTERNATE x 1
RIFF 2 x 3
RIFF 2b x 1
RIFF 2 x 4
BRIDGE x 3 (possibly 4 I’m not sure you’ll have to listen)

Pause for 4 seconds

RIFF 1 x 2
ALTERNATE 2 x 1
RIFF 2 x 3
RIFF 2b x 1
RIFF 2 x 3

Guitar solo
RIFF 2 x 11
EXTRA SOLO RIFF

CHORUS x 2
OUTRO
Suggest correction
Give kudos to tab author, rate the tab!
1 2 3 4 5
comments
print report bad tab
guest
You may want to rate the tab now too:
select rating
Wanna post a correction for this tab? Suggest correction