Oops, an error
Loading. Please wait.

Summertime Rolls Bass Tab

version 2
version 2

Whole song

3,021 views 3 this week
3 commentsread comments
1 2 3 4 5
x 5
add to favorites
launch autoscroll
font size
0
reset
guitar tuner
Autoscroll
slow
fast
+/-
esc
set tempo
stop
Help us to improve Ultimate-Guitar.com Take our survey!
×
G------10-----10-----10-----10-----11------13------13------13------13------|
D--------------------------------------------------------------------------|
A--------------------------------------------------------------------------|
E---9------9------9------9------9-------9-------9-------9-------9----------|

G-------13-----13-----13-----13-----13-----11-----10-----10-----10-----------|
D----------------------------------------------------------------------------|
A----------------------------------------------------------------------------|
E----9------12-----12-----12-----12-----12------9------9------9--------------|
Suggest correction
comments
print report bad tab
3 comments total.
+2 reply
morellostheman 30 Jul 15, 2013 06:02 PM

G------10-----10-----10-----10-----11------13------13------13------13------|
D--------------------------------------------------------------------------|
A--------------------------------------------------------------------------|
E---9------9------9------9------9-------9-------9-------9-------9----------|

G-------13-----13-----13-----13-----13-----11-----10-----10-----10-----------|
D----------------------------------------------------------------------------|
A----------------------------------------------------------------------------|
E----9------0------0------0------0------0------9------9------9--------------|

0 reply
morellostheman 30 Jul 15, 2013 06:03 PM

G------10-----10-----10-----10-----11------13------13------13------13------|D--------------------------------------------------------------------------|A--------------------------------------------------------------------------|E---9------9------9------9------9-------9-------9-------9-------9----------|G-------13-----13-----13-----13-----13-----11-----10-----10-----10-----------|D----------------------------------------------------------------------------|A----------------------------------------------------------------------------|E----9------0------0------0------0------0------9------9------9--------------|

0 reply
Chompobar 79 Aug 25, 2014 06:10 PM

It's okay. 'morellostheman's' correction of it sounds perfect.

So props to him for figuring it out!

guest
You may want to rate the tab now too:
select rating
Wanna post a correction for this tab? Suggest correction