Oops, an error
Loading. Please wait.

Ted Just Admit It Bass Tab

version 2
version 2

Whole song

3,559 views 6 this week
no commentswrite comment
1 2 3 4 5
worth learning
x 7
add to favorites
launch autoscroll
font size
0
reset
guitar tuner
Autoscroll
slow
fast
+/-
esc
set tempo
stop
Help us to improve Ultimate-Guitar.com Take our survey!
×
Author
Artist: Jane's Addiction
Song: Ted, Just Admit It...
Album: Nothing's Shocking (1988)
Tuning: E-A-D-G
Notes: Use a pick
p - Pull-Off
h - Hammer-On
x - Mute Note
/ - Slide Up
\ - Slide Down

Intro: :26
G|-----------------|
D|--7p5--7p5--7p5--|
A|-----------------|
E|-----------------|


Verse 1:  Play from :28 until 2:36
G|------------------------|
D|-----4-------------7p5--|
A|--5-----7---------------|
E|-------------5-7-7------|


Chorus:  2:36
G|----------------------------------------------------------------|
D|-7-7-7-7-7-7-7-7-7-7-5-5-5-5-5/7-7-7-7-7-7-7-7-7-7-5-5-5--------|
A|---------------------------------------------------------5------|
E|-------------------------------------------------------------0--|

G|----------------------------------------------|
D|------------------------------------------7p5-|
A|-"Sex is violent"----7-7-7--7---9-7--7/10-----|
E|--------------------(0-0-0)-------------------|
          If you want (     ) 


Verse 2: Play from 2:56 to 3:43 
G|------------------------|
D|-----4-------------7p5--|
A|--5-----7---------------|
E|-------------5-7-7------|


Chorus:
G|-----------------------------------------------------------------|
D|-7-7-7-7-7-7-7-7-7-7-5-5-5-5-5/7-7-7-7-7-7-7-7-7-7-5-5-5---------|
A|---------------------------------------------------------7-5-5-5-|
E|-----------------------------------------------------------------|

G|-------------------------------|
D|-------------------------------|
A|-\0-0-0-0-0-0--3-3-3--5-5-5-5--|
E|-------------------------------| (x4)

G|--------------------------|
D|----------------------7p5-|
A|-7-7-7-7-7--9-7--7/10-----|
E|--------------------------|



Verse: 4:11 - 4:56
G|------------------------|
D|-----4-------------7p5--|
A|--5-----7---------------|
E|-------------5-7-7------|



Chorus:
G|-------------------------------------------------------------------|
D|-7-7-7-7-7-7-7-7-7-7-5-5-5-5-5/7-7-7-7-7-7-7-7-7-7-5-5-5-----------|
A|---------------------------------------------------------7-5-5-----|
E|----------------------------------------------------------------0~-|



  Drum & synth break

The song completely changes up here

New Verse 1: 5:32 - 5:57
G|---------------------------------------------------------------|
D|---------------------------------------------------------------|
A|------7\-------7\-------7\-------7\-------7\-------7\-------7\-|
E|-0---x---0-0-0x---0-0-0x---0---0x---0-0-0x---0---0x---0-0-0x---|

G|---------------------------------------------------------------|
D|---------------------------------------------------------------|
A|------7\-------7\-------7\-------7\-------7\-------7\-------7\-|
E|-0--0x---0-0-0x---0-0-0x---0---0x---0-0-0x---0---0x---0-0-0x---|

G|-------------------|
D|-------------------|
A|------7\-------7\--|
E|-0--0x---0-0-0x----|


New Chorus:  There are more A's played here than shown
G|-------------------------------------------------|
D|-------------------------------------------------|
A|-------------------------------------------------|
E|-5-5-5-5-53-5-5-5-5-5-5-5-5-5-5-53-5-5-5-5-5-5-5-|

  Drum Break

New Verse 2: 6:14 - 6:26 
G|---------------------------------------------------------------|
D|---------------------------------------------------------------|
A|------7\-------7\-------7\-------7\-------7\-------7\-------7\-|
E|-0--0x---0-0-0x---0---0x---0-0-0x---0---0x---0---0x---0-0-0x---|

G|---------|
D|---------|
A|------7\-|
E|-0--0x---|


New Chorus: There are more A's played here than shown 
G|-------------------------------------------------------|
D|-------------------------------------------------------|
A|-------------------------------------------------------|
E|-5-5-5-5-5p3h5-5-5-5-5-5-5-5-5-5-5p3h5-5-5-5-5-5-5-3h5-|


Outro: 6:38 - 7:16
G|---------------------------------------------------------------|
D|---------------------------------------------------------------|
A|------7\-------7\-------7\-------7\-------7\-------7\-------7\-|
E|-0---x---0-0-0x---0---0x---0-0-0x---0---0x---0-0-0x---0---0x---|

G|-------------------------------------------------------------------------|
D|-------------------------------------------------------------------------|
A|-------7\-------7\-------7\-------7\-------7\-------7\-------7\-------7\-|
E|-0-0-0x---0---0x---0-0-0x---0---0x---0-0-0x---0---0x---0-0-0x---0---0x---| (x2)

G|--------|
D|--------|
A|--------|
E|-0-0-0--|
Suggest correction
comments
print report bad tab
guest
You may want to rate the tab now too:
select rating
Please do not post tabs as comments. Select "correction" instead!