Oops, an error
Loading. Please wait.

Then She Did Bass Tab

3,245 views 9 this week
no commentswrite comment
1 2 3 4 5
worth learning
x 1
add to favorites
launch autoscroll
font size
0
reset
guitar tuner
Tab Pro tools
  • play this tab
  • loop segment
  • change instrument
  • show fretboard
  • metronome
Autoscroll
slow
fast
+/-
esc
set tempo
stop
Then She Did...  {Correction}
Jane's Addiction
Ritual de lo Habitual
Tabbed By Larry

	The previous tab had some parts wrong, here's "my version" of this beautiful song

^  =Keep Note
(x)=Ghost Note

	NOTE ==>Each BLOCK ( |--X--| ), no matter how long it is, represents 4 times.


	*INTRO (1st verse)

G:|------6-6---6--|-----7------------|:x3     |---6-7-7/9-|
D:|-7-7---7---7-7-|------7-----------|:4th    |-7---------|
A:|---------------|-5-5---5------5-5-|:Time   |-----------|
E:|---------------|----------5h7--7--|:Play=> |-----------|

	*PRE-MAIN RIFF	(this comes after "where did u go, i don't know")
			(to catch the timing, listen the song carefuly)

G:|----|---------------|---7-9^-|-(9)-|--9-8^-|---------------|
D:|-7^-|---7-7h10-7h10-|-7------|-----|-------|---7-7h10-7h10-|
A:|----|---------------|--------|-----|-------|---------------|
E:|----|---------------|--------|-----|-------|---------------|

	*MAIN RIFF

G:|--------|---------|------------|-----|
D:|-5-5h7^-|-5-5h7-5-|-5-5h7-5--4-|-5-3-|:	Repeat until CHORUS  
A:|--------|---------|------------|-----|:
E:|--------|---------|------------|-----|

	*CHORUS (after "if u keep it up you'll be...")

G:|----------|-----------7--|-------------|-------|
D:|-7--7-----|-5--5h7-5---7-|-------------|-------|:
A:|------5-7-|--------------|-------------|-------|:
E:|----------|--------------|-555-5-5h7-7-|-7--55-|

	*Then back to the MAIN
	(in this 2nd time in MAIN, Eric plays the strings a few times,  
	not just 1 time as he did before. Here's a line, just for giving an example)

G:|--------|                      |----------|
D:|-5-5h7^-| 1st block in	  |-5-5h7-77-|
A:|--------| MAIN, now is played  |----------|
E:|--------| 			  |----------|

	Listen carefuly and u'll get it

	*CHORUS again

	*BRIDGE (i'll put this in 1 straight line)
     
    1st time
      only
G:|---------||-----------------------|
D:|-5---7---||------5-7-5---5----7---|:	Repeat as necesary
A:|---7---5-||--5-7-------7----7-----|:
E:|---------||---------------------5-|
		
	Last time at Bridge goes

G:|----------------------|
D:|-----5-7-5---5---5----|
A:|-5-7-------7---7---7^-|
E:|----------------------|

	After this, Eric improvises a bit, with a base on the 14th freet on the G string

	CHORUS then and BRIDGE as an outro

OK, that's it... Suggs, comms, corrections, bad words: rhimorse@hotmail.com

AMOR Y PAZ

-----------------------------------------------------------------------------
	{Previous Tab}

From: bgaughan@F22.ess.harris.com (Brady Gaughan)
Newsgroups: rec.music.makers.bass
Subject: Jane's Addiction TAB: Then She Did...

"Then She Did..."  Jane's Addiction  _Ritual de lo Habitual_

Intro w/ guitar (TAB in 4/4)

G ||-----6h7p6---6h7p6---|-----7----------------||---||---6-7-7/9-|
D ||-7-7-------7-------7-|------h7--------------||.--||-7---------|
A ||---------------------|-5-5-----5-----h5--h5-||.X3||-----------|
E ||---------------------|-----------5h7---h7---||---||-----------|
      e e s s q.e s s e e  e e s s q s s  s s e         e e e e h

    (3/4)     Main (4/4)

G |----5-5--||-------|-------|---------|------------||----||
D |-R-7-7-7-||-R-5-7-|-R-5-7-|-R-5-7-5-|-4-5-3-3333-||-.--||
A |---------||-------|-------|---------|------------||-.X4||
E |---------||-------|-------|---------|------------||----||
    e eeeeq.   e e h   e e h   e e q q   q e q ssee

G ||-----------|-4-4444-4-4-|------------|-----|
D ||-7-7777-7-7|------------|------------|-.---|
A ||-----------|------------|-7-7777-9-9-|-.x1-|
E ||-----------|------------|-5-5555-7-7-|-----|
     q.eeee ee.  q.eeee ee.   q.eeee e e.

G |-----------|-7-7777-7-7-|------------|-----||-----||
D |-7-7777-7-7|------------|------------|-.---||-.---||
A |-----------|------------|-7-7777-9-9-|-.x1-||-.x2-||
E |-----------|------------|-5-5555-7-7-|-----||-----||

    Bridge
G ||--------------------|------|
D ||-R-5---7--------5h7-|-.----|
A ||-----7---5-R-5h7----|-.x11-|
E ||--------------------|------|
     e e e e e e s ss s

Then repeat the Main part
comments
We did not receive enough feedback on this tab! Please rate:
print report bad tab
1 2 3 4 5
I want to post or [tab]
guest
You may want to rate the tab now too:
select rating
Please do not post tabs as comments. Select "correction" instead!