Oops, an error
Loading. Please wait.

Then She Did Tab

5,975 views 18 this week
1 commentread comment
1 2 3 4 5
accurate
x 4
add to favorites
launch autoscroll
font size
0
reset
how to read this tab
guitar tuner
Tab Pro tools
  • play this tab
  • loop segment
  • change instrument
  • show fretboard
  • metronome
×
Best way to learn
"Then She Did"
Autoscroll
slow
fast
+/-
esc
set tempo
stop
Contributor
Difficulty
intermediate
----------------------------------------------------------------------------
                             Then She Did... - Jane's Addiction
----------------------------------------------------------------------------
Tabbed by:add_g
Email:add_g@yahoo.com

Tuning:Standard EADGBe

Fig. A                                             Fig. B

e|--0-0-0-0-0---0-0-0-------------------------|    |-0-0-0-|
B|--5-5-5-7-5---5-7-5---3-3-3-3-3-0--0-0-0-0--|    |-0-0-0-|
G|--6-6-6-6-6---6-6-6---4-4-4-4-4-4--4-4-4-4--|    |-6-6-6-|
D|--6-6-6-6-6---6-6-6---4-4-4-4-4-4--4-4-4-4--|    |-6-6-6-|
A|--------------------------------------------|    |-------|
E|--5-5-5-5-5---5-5-5---3-3-3-3-3-3--3-3-3-3--|    |-5-5-5-|

Fig. C

e|-0-0-0-0-0--0-0------------------------|
B|-5-5-5-7-5--0-5---3-3-3-3-3-0--0-0-0-0-|
G|-6-6-6-6-6--6-6---4-4-4-4-4-4--4-4-4-4-|
D|-6-6-6-6-6--6-6---4-4-4-4-4-4--4-4-4-4-|
A|---------------------------------------|
E|-5-5-5-5-5--5-5---3-3-3-3-3-3--3-3-3-4-|

Fig. D

e|-0--0-0-0-0---7-7-7-\-5-5-5-5-5--0-|
B|-5--5-5-5-7---5-5-5-\-3-3-3-3-3--0-|
G|-6--6-6-6-6---6-6-6-\-4-4-4-4-4--4-|
D|-6--6-6-6-6---6-6-6-\-4-4-4-4-4--4-|
A|-----------------------------------|
E|-5--5-5-5-5---5-5-5-\-3-3-3-3-3--3-|

Fig. E                                      Fig. F

e|----------------------------------------| |---------------------------|
B|--5-5-5---------------------------------| |---------------------------|
G|--6-6-6---------------------------------| |---------------------------|
D|--6-6-6---------------------------------| |-5-7---5-7-5---5-7-5-4-5-3-|
A|----------0-0-0-0-8-8-6--0-0-0-0-0-0-0--| |---------------------------|
E|--5-5-5---------------5-----------------| |---------------------------|

Fig. G

e|--0-0---0-0-0---0-0-0-0-0-0--|
B|--3-5---3-5-3---3-5-3-2-3-1--|
G|--4-6---4-6-4---4-6-4-3-4-2--|
D|--5-7---5-7-5---5-7-5-4-5-3--|
A|-----------------------------|
E|-----------------------------|

Fig. H

e|-----------------------------5-5-5-----------5--|
B|--7-7-7-7-7--12-12-12-12-12--5-5-5-----------5--|
G|--7-7-7-7-7--12-12-12-12-12--6-6-6-----------6--|
D|--7-7-7-7-7--12-12-12-12-12--7-7-7-----------7--|
A|--5-5-5-5-5--10-10-10-10-10--7-7-7-7/9-9\7-7-7--|
E|-----------------------------5-5-5-5/7-7\5-5-5--|

Fig. I                          Fig. J                 Fig. K

e|--3-5--3-5-3--3-5-3-2-3-1--| |-------5-5-------------| |---------|
B|--3-5--3-5-3--3-5-3-2-3-1--| |--12-9-5-5--7-9-12-14--| |-12-12-9-|
G|--4-6--4-6-4--4-6-4-3-4-2--| |--12-9-6-6--7-9-12-14--| |-12-12-9-|
D|--5-7--5-7-5--5-7-5-4-5-3--| |--12-9-7-7--7-9-12-14--| |-12-12-9-|
A|---------------------------| |--10-7-7-7--5-7-10-12--| |-10-10-7-|
E|---------------------------| |-------5-5-------------| |---------|

Fig. L

e|--0-7--0-7-5--0-7-5-3-5--10-10-10-10-10-|
B|--5-5--5-5-5--5-5-5-3-3--10-10-10-10-10-|
G|--6-6--6-6-6--6-6-6-4-4--10-10-10-10-10-|
D|--7-7--7-7-7--7-7-7-5-5--10-10-10-10-10-|
A|-------------------------8--8--8--8--8--|
E|----------------------------------------|

Order
A-3x          A-1x          K-1x
B-1x          C-1x          L-2x
A-1x          D-1x          Improvise
C-1x          E-1x          H-2x
D-1x          F-2x          J-16x
B-1x          G-6x          K-1x
A-1x          H-2x
C-1x          I-4x
D-1x          H-2x
B-1x          J-4x
-------------------------------------------------------------

Nothin's exact. Send any comments or corrections that you may or may not have.

************************************

| /   slide up
| \   slide down
| h   hammer-on
| p   pull-off
| ~   vibrato
| +   harmonic
| x   Mute note
| b   Bend
| pb  Pre-bend
| br  Bend release
| pbr Pre-bend release
| brb Bend release bend

************************************
comments
print report bad tab
1 comment total.
0 reply
bluetoolpaul wrote on March 28 2016, 09:44 pm

second chord is a d7 not a gmaj7. honestly, hard one to tab but since I've heard the song about 10,000x i know every little nuance of it. The middle of the song is also totally off.

I want to post or [tab]
guest
You may want to rate the tab now too:
select rating
Please do not post tabs as comments. Select "correction" instead!