Oops, an error
Loading. Please wait.

Three Days Bass Tab

version 1
version 1

Whole song

Interactive

13,187 views 18 this week
2 commentsread comments
1 2 3 4 5
x 10
add to favorites
launch autoscroll
font size
0
reset
guitar tuner
Autoscroll
slow
fast
+/-
esc
set tempo
stop
Help us to improve Ultimate-Guitar.com Take our survey!
×
Author
Difficulty
intermediate
Tab by Tiernan

Song: Three Days
Band: Jane's Addiction
Album: Ritual de lo Habitual

Main riff
G ---------4-4-0h2p0---0h2p0-------------------------------------------|
D -------------------4-------4-----------------------------------------|
A -0h2-2-2---------------------0h2-2-2-2-2-2---------------------------|
E -------------------------------------------3-3-2-2-------------------|
Repeat as many as necessary.


Then Perry holds "Three Daaaaaaays."
                             play these hammers quickly
G----4--2-----2-4----------4-4-0h2p0---0h2p0---0h2p0------------------------------|
D---------4-4------------------------4-------4------------------------------------|
A-2----------------0h2-2-2------------------------------0--0--2-2-2---------------|
E--------------------------------------------------------------------3-3---2--2-2-|
                         The pauses here aren't exact but the notes are right


Then back to the main riff.


"Shadows of the morning light"
G-----------------------------4------------------------|
D---------------------------4--------------------------|
A-2--2-2-0-0-2-0--------2-2-------2--2-2-0-0-0-0---2---|
E-----------------0--0-0-------------------------------|x2


"'Til the Shadows and the lights were one"
G-------------------|
D-----------------2-|
A-2-2-2---2-2-2-----|
E---------------0---|


The jam in the middle ("all of us are with wings"), with the guitar solo:
G ------------------                --------------|
D -----0-2-----0----                -4-4-4-4-4-4--|
A ---2-------2---2--                --------------|
E -0-------0-------- etc--------------------------|           occasionaly


Which then becomes a repeated E, developing into the open E, 7 A octave.
G--------------------------------------------------------------|
D--------------------------------------------------------------|
A-7-7-7-7-7-7-7-7-7-7-7-7-7-7-7-7-7-7-7-7-7-7-7-7-7-7-7-7-7-7--|
E---------------------------------0-0-0-0-0-0-0-0-0-0-0-0-0-0--|(etc.)

"EROTIC JESUS!"
G---------------|
D---------------|
A---------7-7-7-|
E-7-5-3-0-0-0-0-|(etc.)

"All now with wings"
G-----------------------------|
D---------2-------------------|
A-0---2--------7-7-7-7-7-7-7--|
E--------------0-0-0-0-0-0-0--|


Navarro's little mellow guitar bit:
G--------------------------------------------------------|
D--------------------------------------------------------|
A-5-------5------5------5------5-------------7-7-7-7-7-7-|
E---------------------------------------0----0-0-0-0-0-0-|


More erotic jesus-ness


Outro (Last Navarro Solo):
G-------------------------------------------------|
D------------------------------2-2-2--2-2-0-2-2---|
A-------------------------------------------------|
E-0-3-5-0-0-753-0-3-5-0-0-753-------------------0-|


Pretty Little Finish
G---9---------|
D-------------|
A-7-----7-7---|
E-----------0-|
Suggest correction
comments
print report bad tab
2 comments total.
+1 reply
primuslover92 134 Oct 20, 2009 10:06 AM

The jam in the middle is played like this:
G|--------------------- --------------|
D|--------------------- --------------|
A|-----5-7-----5------- etc. --9-9-9-9-9-9-|
E|-0-7-----0-7---7----- --------------|

or at least that is how i play it...anyways, great tab, 5 stars man!

0 reply
buttscience 10 Nov 14, 2013 07:08 PM

WAY off on the "Shadows of the morning light" part. It's played up the neck.

"Shadows of the morning light/Shadows of the evening sun"
G|-----4--4-2-0-2----- ------13h14-14/17p16------|
D|-------------------- ------14-14-14/17-17------|
A|--2----------------- --------------------------|
E|-------------------- -0------------------------|

guest
You may want to rate the tab now too:
select rating
Wanna post a correction for this tab? Suggest correction