Oops, an error
Loading. Please wait.

Underground Bass Tab

984 views 6 this week
no commentswrite comment
1 2 3 4 5
2 more votes to show rating
add to favorites
launch autoscroll
font size
0
reset
guitar tuner
Autoscroll
slow
fast
+/-
esc
set tempo
stop
Help us to improve Ultimate-Guitar.com Take our survey!
×
Author
Difficulty
novice
JANE'S ADDICTION - UNDERGROUND

Bass tab by Robomon.

0:14
G)----------------------------------------|
D)----------------------------------------| X2
A)-6-6-6-6/3-6-6-6-6/3-6-6-6-6/3-6-6-6----|
E)-------------------------------------8--|

0:29
G)------------------------------------------------------|
D)------------------------------------------------------| X2
A)-6-6-6-6-6-6-6-6-6-6-6-6-6-6-6-6--6-6-6-6/3-6-6-6-6/3-|
E)------------------------------------------------------|

0:43
G)-------------------------------------------------------------------------|
D)-------------------------------------------------------------------------|
A)-2-2-2-2-2-2-2-2-2-2-2-2-2-2-2-2-11-11-11-11-11-11-11-11-9-9-9-9-9-9-9-9-|
E)-------------------------------------------------------------------------|

0:52
G)----------------------------------------|
D)----------------------------------------| X2
A)-6-6-6-6/3-6-6-6-6/3-6-6-6-6/3-6-6-6----|
E)-------------------------------------8--|

1:07
G)------------------------------------------------------|
D)------------------------------------------------------| X2
A)-6-6-6-6-6-6-6-6-6-6-6-6-6-6-6-6--6-6-6-6/3-6-6-6-6/3-|
E)------------------------------------------------------|

1:23
G)-------------------------------------------------------------------------|
D)-------------------------------------------------------------------------|
A)-2-2-2-2-2-2-2-2-2-2-2-2-2-2-2-2-11-11-11-11-11-11-11-11-9-9-9-9-9-9-9-9-|
E)-------------------------------------------------------------------------|

1:30
G)------------------------------------------------------|
D)------------------------------------------------------| X2
A)-6-6-6-6-6-6-6-6-6-6-6-6-6-6-6-6--6-6-6-6/3-6-6-6-6/3-|
E)------------------------------------------------------|

1:46
G)-------------------------------------------|
D)-------------------------------------------|
A)-12----7----3----7----12----7----3----7----|
E)-------------------------------------------|

2:01
G)---------------------|
D)---------------------|
A)-6-6-6-6/3-6-6-6-6/3-|
E)---------------------|

2:05
G)---------------------------------------|
D)---------------------------------------|
A)-6-6-6-6/3-6-6-6-6/3-6-6-6-6/3-6-6-6-8-| X3
E)---------------------------------------|

2:27
G)-------------------------------------------------------------------------|
D)-------------------------------------------------------------------------|
A)-2-2-2-2-2-2-2-2-2-2-2-2-2-2-2-2-11-11-11-11-11-11-11-11-9-9-9-9-9-9-9-9-|
E)-------------------------------------------------------------------------|

2:35
G)------------------------------------------------------|
D)------------------------------------------------------| X3
A)-6-6-6-6-6-6-6-6-6-6-6-6-6-6-6-6--6-6-6-6/3-6-6-6-6/3-|
E)------------------------------------------------------|

2:50
G)------------------------------------------------------|
D)------------------------------------------------------|
A)-6-6-6-6-6-6-6-6-6-6-6-6-6-6-6-6--6-6-6-6/3-6-6-6-6/3-|
E)------------------------------------------------------|

3:01
G)-------------|
D)-------------|
A)-6-6-6-6-4-6-|
E)-------------|
Suggest correction
Give kudos to tab author, rate the tab!
1 2 3 4 5
comments
print report bad tab
guest
You may want to rate the tab now too:
select rating
Wanna post a correction for this tab? Suggest correction