Oops, an error
Loading. Please wait.

Up The Beach Bass Tab

version 2
version 2

Whole song

Interactive

704 views 1 this week
no commentswrite comment
1 2 3 4 5
please rate
add to favorites
launch autoscroll
font size
0
reset
guitar tuner
Autoscroll
slow
fast
+/-
esc
set tempo
stop
Help us to improve Ultimate-Guitar.com Take our survey!
×
                               This is a great song to play 
                                   Love Jane's Addiction!!


Part 1

|--7-7-7-7-7h9p7-|
|-0-0-0-0-0------| 
|----------------|
|----------------| 

Part 2
Guitar Solo

|--9-9-9-9-7-7-7--|
|-7-7-7-7-0-0-0---|
|-----------------|
|-----------------| 

Part 3           Play this after 4th time of part 3

|---------------|      |-------------|
|---1716--------|x4    |-------------|
|-------1716----|      |----19--21---|
|---------------|      |-------------|
                           Let Ring 

REPEAT THREE TIMES
Suggest correction
Give kudos to tab author, rate the tab!
1 2 3 4 5
comments
print report bad tab
guest
You may want to rate the tab now too:
select rating
Wanna post a correction for this tab? Suggest correction