Oops, an error
Loading. Please wait.

Wrong Girl Tab

version 1
version 1

Intro

Interactive

4,950 views 3 this week
5 commentsread comments
1 2 3 4 5
x 7
add to favorites
launch autoscroll
font size
0
reset
how to read this tab
guitar tuner
×
Best way to learn
"Wrong Girl"
Autoscroll
slow
fast
+/-
esc
set tempo
stop
Author
Artist- Jane's Addiction
Album- Strays

This is an awesome song with a bluesy feel, but i cant believe no one has
posted it yet. The timing is a little weird but listen to it and i'm sure
you'll be able to get it. When doing the vibrato, bend the strings up and
down using the side of your finger.

~ Vibrato
h Hammer On
p Pull Off

Intro(Distortion) Played Quickly

e --------------------------------------------------------------------------|
b ---------6~--------8--8---6~--------66686-----------6~--------8--8---6~---|
g ---------6~--------8--8---6~--------66686-----------6~--------8--8---6~---|
d ---8-6-8-----8-6-8--------------8-8-------8-6-8-6-8-----8-6-8-------------|
a --------------------------------------------------------------------------|
E --------------------------------------------------------------------------|

e ---------------------------|
b -------6668~---------------|
g -------6668~---------------|
d ---8-8---------------------|
a ---------------------------|
E ---------------------------|

That's It For The Intro. The Intro Is Also Basically The Verse Of The Song, Except
During The Verses There Are Several Variations. I'll Post The Rest Of The Song When
I Have Time.

Email Me With Any Corrections At williedylan8@yahoo.com
Suggest correction
comments
print report bad tab
5 comments total. Showing first comments.
0 reply
philjay 80 Dec 28, 2006 11:49 AM

You're missing a note then it'll be good:
e --------------------------------------------------------------------------|
b ---------6~--------8--8---6~--------66686-----------6~--------8--8---6~---|
g ---------6~--------8--8---6~--------66686-----------6~--------8--8---6~---|
d ---8-6-8-----8-6-8-------------8-8-8-------8-6-8-6-8-----8-6-8-------------|
a --------------------------------------------------------------------------|
E --------------------------------------------------------------------------|

e ---------------------------|
b -------6668~---------------|
g -------6668~---------------|
d ---8-8---------------------|
a ---------------------------|
E ---------------------------|

0 reply
Sozes Flying V 124 Jul 01, 2007 11:43 AM

Sounds perfect if you move up a note. Damn good tab though

0 reply
ivan999 64 Jan 15, 2008 04:00 PM

i posted the whole song already

guest
You may want to rate the tab now too:
select rating
Wanna post a correction for this tab? Suggest correction