Oops, an error
Loading. Please wait.

Gigantes Tab

6 views 1 this week
no commentswrite comment
1 2 3 4 5
3 more votes to show rating
add to favorites
launch autoscroll
font size
0
reset
how to read this tab
guitar tuner
×
Best way to learn
"Gigantes"
Autoscroll
slow
fast
+/-
esc
set tempo
stop
Espero que les guste esta transcripcion de esta hermosa cancion de
Jannette Chao, esta armonizada en su tono original, con acordes
correctos.

les pongo el intro del piano para tocarlo en la guitarra:

   D5                  A*                  G*                   Gm
e|-0-----0--2-3-5~-3p2p0---0-5-----0-5-3-2--------3-------------3-----3-1-0
B|-3---3---------------2---------3---------3~---3-------------3-3---3------
G|-2-2-----------------2-2-----2-----------0--0-------0-2---0---3-3--------
D|-0-------------------0-------------------0--------0-----0----------------
A|-----------------------------------------2-------------------------------
E|-------------------------------------------------------------------------

e|--------------   nota: (tuve que partir el intro en dos, ya saben estos
B|-3------------          ingratos de la  no nos dejan subir mas
G|---3-0~~--(3)-          de 75 caracteres por linea, asi que ya saben es
D|--------------          todo seguido)
A|--------------
E|--------------

D5                      A*
Una vez mas, te busco y no te encuentro
G*                    A#
una vez mas intento hacerte entender
          D         Am
que tu presencia me hace temblar
         G                   A#
que son tus manos las que me hacen dudar
              D5              Am
que entre tus ojos se fuga mi alma
    G
que busca y que encuentra
     Gm                 A#
que miente y piensa que nunca te tienen verdad


-repite el intro con una variante que me dio weba sacar asi
que si quieren repitan el intro normal


D5                      A*
una vez mas te busco entre las piedras
  G                         A#
escarbo entre las hierbas de este corazon
      D                                        Am
porque huyes del tiempo y te esconde las frases de orgullo
  G             Gm                      A#
y dolor y te obstruye la via de escape

A#                   C               F
cuantas veces te he dicho que los gigantes
               A#
no siempre son grandes
     Gm         C    C7         F
son debiles pequeños en su interior
A#                  A#m      F
mirame a los ojos y ve como muero por ti
         Dm
como me pierdo al sentir
        A#        A#m                          F
que te vas dejando,  alejando cada vez mas de mi

F C Dm A#  X3

solo de piano: (logicamente pa que lo toquen en la guitarra).
   F                        C                        Dm
e|-------------------12-8---------------------12-8---------------------10-8
B|-10----------10---------8-10----------10---------8-10----------10--------
G|----------10-----------------------10-----------------------10-----------
D|----10-10-------10-----------10-10-------10-----------10-10-------10-----
A|-------------------------------------------------------------------------
E|-------------------------------------------------------------------------
        A#
e|----------------------------
B|-10-10/13-11-10----10-11-13-
G|----------------12----------
D|----------------------------
A|----------------------------
E|----------------------------

Esa parte de arriba se repite 2 veces y luego viene una tercera donde
solo cambian algunas notas:

   F                        C                        Dm
e|-------------------12-8---------------------12-13----------------------10
B|-10----------10----------8-10----------10---------10-13----------10------
G|----------10-----------------------10-------------------------10---------
D|----10-10-------10-----------10-10-------10-------------10-10-------10---
A|-------------------------------------------------------------------------
E|-------------------------------------------------------------------------

          A#
e|-8----------------------------
B|---10-10/13-11-10-------------
G|------------------12-10-12----
D|---------------------------12-
A|------------------------------
E|------------------------------


A#                   C               F
cuantas veces te he dicho que los gigantes
                A#
no siempre son grandes
     Gm         C    C7         F
son debiles pequeños en su interior
A#                  A#m      F
mirame a los ojos y ve como muero por ti
         Dm
como me pierdo al sentir
        A#        A#m              F                 C  Dm A#
que te vas dejando,  alejando cada vez mas de mi

F C Dm A#


acordes:

   D5   A*   G*

e|-0----0----0
B|-3----2----3
G|-2----2----0
D|-0----0----0
A|-x----0----2
E|-x----x----3
Suggest correction
Give kudos to tab author, rate the tab!
1 2 3 4 5
comments
print report bad tab
guest
You may want to rate the tab now too:
select rating
Wanna post a correction for this tab? Suggest correction