Oops, an error
Loading. Please wait.

Feel The Love Tab

31 views 6 this week
no commentswrite comment
1 2 3 4 5
3 more votes to show rating
add to favorites
launch autoscroll
font size
0
reset
how to read this tab
guitar tuner
Autoscroll
slow
fast
+/-
esc
set tempo
stop
Help us to improve Ultimate-Guitar.com Take our survey!
×
Author
Difficulty
novice
[Intro]

e|----------------7--s--6-6--s--------------------------------|
B|-7--s----7-6-4-----s-------s--6--s----6-7-9-----------------|
G|----s--------------s-------s-----s-----------6--s--8-8--s---|
D|----s-----------6--s--4-4--s-----s--------------s-------s---|
A|-6--s--6----------------------4--s--4-----------s-------s---|
E|---------------------------------------------6--s--7-7--s---|

[Verse] 

e|----------------7--s--6-6--s--------------------------------|
B|-7--s----7-6-4-----s-------s--6--s----6-7-9-----------------|
G|----s--------------s-------s-----s-----------6--s--8-8--s---|
D|----s-----------6--s--4-4--s-----s--------------s-------s---|
A|-6--s--6----------------------4--s--4-----------s-------s---|
E|---------------------------------------------6--s--7-7--s---|(x4)

[Pre-Chorus]

e|------------------------------------------------|
B|-7-----------------------6----------------------|
G|----------------4--3-3------------------6--8-8--|
D|------------------------------------------------|
A|-6-----------------------4----------------------|
E|----------------4--2-2------------------6--7-7--|

e|----------------7--s--6-6--s--------------------------------|
B|-7--s----7-6-4-----s-------s--6--s----6-7-9-----------------|
G|----s--------------s-------s-----s-----------6--s--8-8--s---|
D|----s-----------6--s--4-4--s-----s--------------s-------s---|
A|-6--s--6----------------------4--s--4-----------s-------s---|
E|---------------------------------------------6--s--7-7--s---|

[Chorus] 

e|----------------7--s--6-6--s--------------------------------|
B|-7--s----7-6-4-----s-------s--6--s----6-7-9-----------------|
G|----s--------------s-------s-----s-----------6--s--8-8--s---|
D|----s-----------6--s--4-4--s-----s--------------s-------s---|
A|-6--s--6----------------------4--s--4-----------s-------s---|
E|---------------------------------------------6--s--7-7--s---|(x4)


[Strings / Pre-Chorus]

e|------------------------------------------------|
B|-7-----------------------6----------------------|
G|----------------4--3-3------------------6--8-8--|
D|------------------------------------------------|
A|-6-----------------------4----------------------|
E|----------------4--2-2------------------6--7-7--|

e|----------------7--s--6-6--s--------------------------------|
B|-7--s----7-6-4-----s-------s--6--s----6-7-9-----------------|
G|----s--------------s-------s-----s-----------6--s--8-8--s---|
D|----s-----------6--s--4-4--s-----s--------------s-------s---|
A|-6--s--6----------------------4--s--4-----------s-------s---|
E|---------------------------------------------6--s--7-7--s---|


[Chorus] 

e|----------------7--s--6-6--s--------------------------------|
B|-7--s----7-6-4-----s-------s--6--s----6-7-9-----------------|
G|----s--------------s-------s-----s-----------6--s--8-8--s---|
D|----s-----------6--s--4-4--s-----s--------------s-------s---|
A|-6--s--6----------------------4--s--4-----------s-------s---|
E|---------------------------------------------6--s--7-7--s---|(x4)


*************************************

| s slap

*************************************
Suggest correction
Give kudos to tab author, rate the tab!
1 2 3 4 5
comments
print report bad tab
guest
You may want to rate the tab now too:
select rating
Wanna post a correction for this tab? Suggest correction