Oops, an error
Loading. Please wait.

Ouran Highschool Toast Club Tab

by JANK
34 views 34 this week
no commentswrite comment
1 2 3 4 5
3 more votes to show rating
add to favorites
launch autoscroll
font size
0
reset
how to read this tab
guitar tuner
Autoscroll
slow
fast
+/-
esc
set tempo
stop
Help us to improve Ultimate-Guitar.com Take our survey!
×
Author
Difficulty
Tuning
intermediate
C# G# C# F# A# D#
About this tab version
Tabs mostly referenced from his acoustic version on my parents basement session. Was this info helpful? Yes No
Not really drop c# just tune the F# to F   
[Intro]

D#|--------------------------------------------------------------------------|
A#|--------------------------------------------------------------------------|
 F|--------------------------------------------------------3h5p3p0-1/3\1p0---|
C#|------4--------4--------4----4444444--44-4-42-/-4--44-4-------------------|
G#|----5----5---5----5---5---5--5555555--55-5-54-/-5--55-5-------------------|
C#|--0--------0--------0--------0000000--00-0-00-/-0--00-0-------------------|

D#|--------------------------------------------------------------------------|
A#|--------------------------------------------------------------------------|
 F|---------------------3h4p0------------------------------3h5p3p0-1/3\1p0---|
C#|--44-4-42-/-4--44-4--------2/4\2p0---44-4-42-/-4--44-4--------------------|
G#|--55-5-54-/-5--55-5------------------55-5-54-/-5--55-5--------------------|
C#|--00-0-00-/-0--00-0------------------00-0-00-/-0--00-0--------------------|

[Verse]                         sharp lances school dances...
D#|-----------------------------55-555-55-555-77-777-55-555-55-555-55-555--222-------------|
A#|-----------------------------55-555-55-555-77-777-55-555-55-555-55-555--222-------------|
 F|-----------------------------00-000-00-000-00-000-00-000-00-000-00-000--000-------------|
C#|--44-4-42-/-4--44-4--44444---00-000-00-000-00-000-00-000-00-000-00-000--000-------------|
G#|--55-5-54-/-5--55-5--55555---xx-xxx-xx-xxx-xx-xxx-xx-xxx-xx-xxx-xx-xxx--000--2/4-4/5----|
C#|--00-0-00-/-0--00-0--00000---55-555-55-555-55-555-55-555-44-444-44-444-------2/4-4/5----|
  
  stratigo limbido...          when will i take finland in this game of...
D#|--55-555-55-555-77-777-55-555-55-555-555---2222222------------------------------------|
A#|--55-555-55-555-77-777-55-555-55-555-555---2222222------------------------------------|
 F|--00-000-00-000-00-000-00-000-00-000-000---0000000------------------------------------|
C#|--00-000-00-000-00-000-00-000-00-000-000---0000000------------------------------------|
G#|--xx-xxx-xx-xxx-xx-xxx-xx-xxx-xx-xxx-xxx----------------------------------------------|
C#|--55-555-55-555-55-555-55-555-44-444-444----------------------------------------------|

[Bridge]
     Risk                  everything is a bummer...
D#|--5-5-55--5-5-55--555555--2--2--2-2-2-2-------------------------------|
A#|--5-5-55--5-5-55--555555--2--2--2-2-2-2-------------------------------|
 F|--0-0-00--0-0-00--000000--0--0--0-0-0-0-------------------------------|
C#|--0-0-00--0-0-00--000000--0--0--0-0-0-0-------------------------------|
G#|--x-x-xx--x-x-xx--xxxxxx--x--x--x-x-x-x-------------------------------|
C#|--5-5-55--5-5-55--555555--2--2--2-2-2-2-------------------------------|
   
                          i dont care if you ampeg 8x10 is from 1973..
D#|--5-5-55--5-5-55--555555--2--2--2-2-2-2-------------------------------|
A#|--5-5-55--5-5-55--555555--2--2--2-2-2-2-------------------------------|
 F|--0-0-00--0-0-00--000000--0--0--0-0-0-0-------------------------------|
C#|--0-0-00--0-0-00--000000--0--0--0-0-0-0-------------------------------|
G#|--x-x-xx--x-x-xx--xxxxxx--x--x--x-x-x-x-------------------------------|
C#|--5-5-55--5-5-55--555555--2--2--2-2-2-2-------------------------------|
    
                           maybe if you kissed me less on the forehead..
D#|--5-5-55--5-5-55--555555--2--2--2-2-2-2-------------------------------|
A#|--5-5-55--5-5-55--555555--2--2--2-2-2-2-------------------------------|
 F|--0-0-00--0-0-00--000000--0--0--0-0-0-0-------------------------------|
C#|--0-0-00--0-0-00--000000--0--0--0-0-0-0-------------------------------|
G#|--x-x-xx--x-x-xx--xxxxxx--x--x--x-x-x-x-------------------------------|
C#|--5-5-55--5-5-55--555555--2--2--2-2-2-2-------------------------------|
    
                                           wear the costumes..
D#|--5-5-55--5-5-55--555555--2--2--2-2-2-2---333333---2--------------------------|
A#|--5-5-55--5-5-55--555555--2--2--2-2-2-2---333333---2--------------------------|
 F|--0-0-00--0-0-00--000000--0--0--0-0-0-0---000000---0--------------------------|
C#|--0-0-00--0-0-00--000000--0--0--0-0-0-0---000000---0--------------------------|
G#|--x-x-xx--x-x-xx--xxxxxx--x--x--x-x-x-x---xxxxxx---0--------------------------|
C#|--5-5-55--5-5-55--555555--2--2--2-2-2-2---333333---0--------------------------|

D#|--------------------------------------------------------------------------|
A#|--------------------------------------------------------------------------|
 F|--------------4-----------4444444-----------------------------------------|
C#|------4-----0-------4-----0000000-----------------------------------------|
G#|----5-----5-------5---5---5555555-----------------------------------------|
C#|--0-----0-------0---------0000000-----------------------------------------|

    
D#|-------------------------------------------------------------------------|
A#|--55-555-555-55-555-555--5-5-55-/-10-10-1010/-5-5-55-/-10-10-1010--------|
 F|--00-000-000-44-444-444--4-4-44-/-8--8--8-8-/-4-4-44-/-8--8--8-8---------|
C#|--44-444-444-00-000-000--0-0-00-/-0--0--0-0-/-0-0-00-/-0--0--0-0---------|
G#|--55-555-555-55-555-555--0-0-00-/-0--0--0-0-/-0-0-00-/-0--0--0-0---------|
C#|-------------------------5-5-55-/-9--9--9-9-/-5-5-55-/-9--9--9-9---------|
  
   maybe im just walking in..
D#|-------------------------------------------------------------------------|
A#|--55-555-555-55-555-555--5-5-55-/-10-10-1010/-5-5-55-/-10-10-1010--------|
 F|--00-000-000-44-444-444--4-4-44-/-8--8--8-8-/-4-4-44-/-8--8--8-8---------|
C#|--44-444-444-00-000-000--0-0-00-/-0--0--0-0-/-0-0-00-/-0--0--0-0---------|
G#|--55-555-555-55-555-555--0-0-00-/-0--0--0-0-/-0-0-00-/-0--0--0-0---------|
C#|-------------------------5-5-55-/-9--9--9-9-/-5-5-55-/-9--9--9-9---------|
  
   bring shia down..
D#|-------------------------------------------------------------------------|
A#|--55-555-555-55-555-555--5-5-55-/-10-10-1010/-5-5-55-/-10-10-1010--------|
 F|--00-000-000-44-444-444--4-4-44-/-8--8--8-8-/-4-4-44-/-8--8--8-8---------|
C#|--44-444-444-00-000-000--0-0-00-/-0--0--0-0-/-0-0-00-/-0--0--0-0---------|
G#|--55-555-555-55-555-555--0-0-00-/-0--0--0-0-/-0-0-00-/-0--0--0-0---------|
C#|-------------------------5-5-55-/-9--9--9-9-/-5-5-55-/-9--9--9-9---------|
   
D#|-------------------------------------------------------------------------|
A#|--55-555-555-55-555-555--5-5-55-/-10-10-1010/-5-5-55-/-10-10-1010--------|
 F|--00-000-000-44-444-444--4-4-44-/-8--8--8-8-/-4-4-44-/-8--8--8-8---------|
C#|--44-444-444-00-000-000--0-0-00-/-0--0--0-0-/-0-0-00-/-0--0--0-0---------|
G#|--55-555-555-55-555-555--0-0-00-/-0--0--0-0-/-0-0-00-/-0--0--0-0---------|
C#|-------------------------5-5-55-/-9--9--9-9-/-5-5-55-/-9--9--9-9---------|

D#|--------------------------------------------------|
A#|--55/1010/55/1010/-55555555/10101010------5h7-----|
 F|--44/8-8-/44/8-8-/-44444444/88888888---------7----|
C#|--00/0-0-/00/0-0-/-00000000/00000000--0-------7b--|
G#|--00/0-0-/00/0-0-/-00000000/00000000--0-----------|
C#|--55/9-9-/55/9-9-/-55555555/99999999--0-----------|

D#|------------------------------------------------------------------------------------|
A#|------------------------------------------------------------------------------------|
 F|--------------------3h5p3p0-1/3/1p0--------------------3h4p30-----------------------|
C#|---44-4-42/4--44-4--------------------44-4-42/4--44-4--------2/4\2p0----------------|
G#|---55-5-54/5--55-5--------------------55-5-54/5--55-5-------------------------------|
C#|---00-0-00/0--00-0--------------------00-0-00/0--00-0-------------------------------|

D#|------------------------------------------------------------------------------------|
A#|------------------------------------------------------------------------------------|
 F|---------------------3h5p3p0-1/3/1p0------------------------------------------------|
C#|---44-4-42-/-4--44-4------------------44-4-42/4--44-4-44444-------------------------|
G#|---55-5-54-/-5--55-5------------------55-5-54/5--55-5-55555-------------------------|
C#|---00-0-00-/-0--00-0------------------00-0-00/0--00-0-00000-------------------------|



************************************

| x   Dead note
| h   Hammer-on
| p   Pull-off
| b   Bend
| /   Slide up

************************************
Suggest correction
Give kudos to tab author, rate the tab!
1 2 3 4 5
comments
print report bad tab
guest
You may want to rate the tab now too:
select rating
Wanna post a correction for this tab? Suggest correction