Oops, an error
Loading. Please wait.

This Is A Song About My Bike Ralph And Its Called Ralph tab

by JANK
1,252 views 9 this week
1 commentread comment
1 2 3 4 5
1 last vote to show rating
add to favorites
×
Save as Personal and add changes to this tab that will be seen only by you. Learn more ›
×
You can save this tab as Personal to edit and correct it or add notes. All changes will be seen only by you. Learn more »
launch autoscroll
font size
0
reset
how to read this tab
guitar tuner
edit
Autoscroll
slow
fast
+/-
esc
set tempo
stop
[Intro] 
(Play first riff a bunch of times)

e|--------------------------------------------------------------------------|
B|------10-9-0--------------10-9--------------------------------------------|
G|------------------or -----------------------------------------------------|
D|7-7----------------------------9------------------------------------------|
A|7-7-----------------------------------------------------------------------|
D|7-7-----------------------------------------------------------------------|
 PM PM

Then

e|---------------------------------------------------------------------------|
B|---------------------------------------------------------------------------|
G|---------------------------------------------------------------------------|
D|-14-11-9-------------------------------------------------------------------|
A|-12-9--7------not sure what the last dissonant chord is--------------------|
E|-12-9--7-------------------------------------------------------------------|


[Ending]

e|------------------------------|
B|-10-------------9~------------|
G|----9-10--------9~------------|
D|---------12-----9~-(I think)--|
A|----------------7~------------|
E|----------------7~------------| 

            
            
Suggest correction
Creating personal tab
Creating personal tab
You can edit any tab online and save it as your Personal.

You can edit, replace or remove any tab part or add personal notes – all changes will be seen only by you.

Personal tabs can be accessed anytime from any device, even offline.
Learn more »
Give kudos to tab author, rate the tab!
1 2 3 4 5
comments
print report bad tab
1 comment total.
0 reply
kiksout 10 Jun 15, 2017 10:35 AM

mmh i think he's playing something like

------------------
------------------
------------------
-14-11-9-7--------
-12-11-9-x--------
-12-11-9-8--------

guest
You may want to rate the tab now too:
select rating
Wanna post a correction for this tab? Suggest correction