Oops, an error
Loading. Please wait.

Wut I Liek Abt U Tab

by JANK
799 views 87 this week
1 commentread comment
1 2 3 4 5
2 more votes to show rating
add to favorites
launch autoscroll
font size
0
reset
how to read this tab
guitar tuner
Autoscroll
slow
fast
+/-
esc
set tempo
stop
Help us to improve Ultimate-Guitar.com Take our survey!
×
Author
Tuning
C# G# C# F# A# D#
Not actually Drop C but there was no option of the tuning. Just remember to make it an F natural
Also DON'T FORGET THE CAPO ON 3. ALL NOTES RELATIVE (so all 8's are actually 11's, and so on)
[Intro]

D#|-----------------------------|
A#|5--33--22-2222--5--33--2-22--| 
 F|7--55--33-3333--7--55--3-33--|
C#|-----------------------------|
G#|-----------------------------|
C#|-----------------------------|



[Verse]

D#|0--00--00-0000--0--00--00-0000-0-0-0-0-0-0-0-0-0-0-0-0------|
A#|5--33--22-2222--5--33--22-2222-5-5-5-5-5-5-5-5-5-5-5-5------|
 F|7--55--33-3333--7--55--33-3333-7-7-7-7-7-7-7-7-7-7-7-7------| X3
C#|0--00--00-0000--0--00--00-0000-0-0-0-0-0-0-0-0-0-0-0-0------|
G#|0--00--00-0000--0--00--00-0000-0-0-0-0-0-0-0-0-0-0-0-0------|
C#|0--00--00-0000--0--00--00-0000-6-6-6-6-6-6-6-6-6-6-6-6------|

D#|--------------5p0---------|
A#|--2h3p2p0-----------------|
 F|----------3/7-------------|
C#|--------------------------|
G#|--------------------------|
C#|--------------------------|

Time change
D#|0--00--00-0000--0--00--00-0000-0-0-0-0-0-0-0-0-0-0-0-0------|
A#|5--33--22-2222--5--33--22-2222-5-5-5-5-5-5-5-5-5-5-5-5------|
 F|7--55--33-3333--7--55--33-3333-7-7-7-7-7-7-7-7-7-7-7-7------|
C#|0--00--00-0000--0--00--00-0000-0-0-0-0-0-0-0-0-0-0-0-0------|
G#|0--00--00-0000--0--00--00-0000-0-0-0-0-0-0-0-0-0-0-0-0------|
C#|0--00--00-0000--0--00--00-0000-6-6-6-6-6-6-6-6-6-6-6-6------|

[bridge & 2nd verse]
D#|0--00-0-0--00-0-0--00-0-00000000--0--00-0-0--00-0-0-0-0-0-------|
A#|0--00-0-0--00-0-0--00-0-00000000--0--00-0-0--00-0-0-0-0-0-------|
 F|7--77-7-7--77-7-7--77-7-55555555--7--77-7-7--77-7-5-5-5-5-------|
C#|7--77-7-7--77-7-7--77-7-66666666--7--77-7-7--77-7-6-6-6-6-------|
G#|0--00-0-0--00-0-0--00-0-00000000--0--00-0-0--00-0-0-0-0-0-------|
C#|----------------------------------------------------------------|

D#|0-0-00-xxxxxx-0-0-00-xxxxxx-0-0-0-00-0--0-0-0-00-0---------------------|
A#|5-5-55-xxxxxx-5-5-55-xxxxxx-5-5-5-55-5--5-5-5-55-5---------------------|
 F|7-7-77-xxxxxx-7-7-77-xxxxxx-7-7-7-77-7--7-7-7-77-7---------------------|
C#|0-0-00-xxxxxx-0-0-00-xxxxxx-0-0-0-00-0--0-0-0-00-0---------------------|
G#|0-0-00-xxxxxx-0-0-00-xxxxxx-0-0-0-00-0--0-0-0-00-0---------------------|
C#|0-0-00-xxxxxx-0-0-00-xxxxxx-0-0-0-00-0--0-0-0-00-0---------------------|


[Outro]

D#|----------------5----5-----5----------------------|
A#|----------------2------2---2----------------------|
 F|2b3r2p0---------0--------0-0---2b3r2p0------------|
C#|-------2p0----------------------------2p0---------|
G#|----------4p0----------------------------4p0------|
C#|-------------0------------------------------------|

that's all I have so far but that's 95% percent of the song

************************************

| x   Dead note
| g   Grace note
| (n) Ghost note
| h   Hammer-on
| p   Pull-off
| r   Release
| >   Accented note
| t   Tapping
| b   Bend
| br  Bend release
| pb  Pre-bend
| pbr Pre-bend release
| /   Slide up
| \   Slide down
| ~   Vibrato
| s   Slap
| P   Pop
| PM  Palm mute
| TR  Trill
| N   Tremolo

************************************
Suggest correction
Give kudos to tab author, rate the tab!
1 2 3 4 5
comments
print report bad tab
1 comment total.
0 reply
CottonSchlong 34 Nov 30, 2016 07:50 AM

the tuning is DADF#BE with capo on 2

guest
You may want to rate the tab now too:
select rating
Wanna post a correction for this tab? Suggest correction