Oops, an error
Loading. Please wait.

Diamond Virgin bass

version 1
version 1

Whole song

  • First bass tab of this song.

Interactive

13 views 1 this week
no commentswrite comment
1 2 3 4 5
3 more votes to show rating
add to favorites
×
Save as Personal and add changes to this tab that will be seen only by you. Learn more ›
×
You can save this tab as Personal to edit and correct it or add notes. All changes will be seen only by you. Learn more »
launch autoscroll
font size
0
reset
guitar tuner
edit
Autoscroll
slow
fast
+/-
esc
set tempo
stop
About this tab version
First bass tab of this song. Was this info helpful? Yes No
[Intro]

G|-11---12---11-----------------9----------------11-------12------12----------|
D|----------------10-------12-------12-------9--------9-------9-------9-------|
A|----------------------------------------------------------------------------|
E|----------------------------------------------------------------------------|

G|-11---12---11-----------------9----------------11------14---12---11---------|
D|----------------10-------12-------12-------9--------9-----------------9-----|
A|----------------------------------------------------------------------------|
E|----------------------------------------------------------------------------|

G|----------------------------------------------------------------------------|
D|----------------------------------------------------------------------------|
A|-------------------------------5---5-5---5---5------------------------------|
E|-0---0---0---0-5---5-5---5---5-------------------3---3---2---2/-------------|

G|------------------------------------------------------12--------------------|
D|----------------------------------------------------------------------------|
A|-------------------------------5---5-5---5---5---10--------9---9------------|
E|-0---0---0---0-5---5-5---5---5----------------------------------------------|

G|----------------------------------------------------------------------------|
D|----------------------------------------------------------------------------|
A|-7---/-------------------------5---5-5---5---5------------------------------|
E|---------0-----5---5-5---5---5-------------------3---3---2---2--------------|

G|----------------------------------------------------------------------------|
D|----------------------------------------------------------------------------|
A|-------------------------------5---5-5---5---5---10---10---9---10-----------|
E|-0---0---0---0-5---5-5---5---5------------------------10--------------------|

[Verse]

G|----------------------------------------------------------------------------|
D|----------------------------------------------------------------------------|
A|-7---7---7---7-7---7-7---7---7---7---7---7---7-7---7-7---7---7--------------|
E|----------------------------------------------------------------------------|

G|----------------------------------------------------------------------------|
D|----------------------------------------------------------------------------|
A|-3---3---3---3-3---3-3---3---3---3---3---3---3-3---3-3---3---3--------------|
E|----------------------------------------------------------------------------|

G|----------------------------------------------------------------------------|
D|----------------------------------------------------------------------------|
A|-5---5---5---5-5---5-5---5---5---6---6---6---6-6---6-6---6---6--------------|
E|----------------------------------------------------------------------------|

G|----------------------------------------------------------------------------|
D|----------------------------------------------------------------------------|
A|-7-----------------------5---6---7------------------------------------------|
E|-----0---3---3-5---5-6---------------0---3---3-5---5-6---5---3--------------|

G|----------------------------------------------------------------------------|
D|----------------------------------------------------------------------------|
A|-7---7---7---7-7---7-7---7---7---7---5---7---5-7---7-10--9---7--------------|
E|----------------------------------------------------------------------------|

G|-----------------------------5---5-----4------------------------------------|
D|---------------------------------------------5-------5---4------------------|
A|-3---3---3---3-3---3-3---3-----------------------------------3--------------|
E|----------------------------------------------------------------------------|

G|----------------------------------------------------------------------------|
D|---------4---4-5---5-7---4---------------4---4-5---5-7----------------------|
A|-5---5-----------------------5---6---6-------------------5---6--------------|
E|----------------------------------------------------------------------------|

G|-----------------------------7-7-9-7----------------------------------------|
D|---------------------7-8-9-9---------9-8-7-5-7-9-7-5------------------------|
A|-7\--------------------------------------------------7-5-2p0----------------|
E|---------0-0-0-0-0-0-----------------------------------------3-0------------|

[Pre-Chorus]

G|----------------------------------------------------------------------------|
D|----------------------------------------------------------------------------|
A|-3-3-3-3-3-3-3-3-3-3-3-3-3-3-3-3-3-3-3-3-3-3-3-3-3-3-3-3-3-3-3-3------------|
E|----------------------------------------------------------------------------|

G|----------------------------------------------------------------------------|
D|----------------------------------------------------------------------------|
A|-7/-------------------------------------------------------------------------|
E|-------0-0-0-0-0-0-0-0-0-0-0-0-0-0-0-0-0-0-0-0-0-0-0-0-0-0-0-0-0------------|

G|----------------------------------------------------------------------------|
D|----------------------------------------------------------------------------|
A|-3-3-3-3-3-3-3-3-3-3-3-3-3-3-3-3-3-3-3-3-3-3-3-3-3-3-3-3-3-3-3/-------------|
E|----------------------------------------------------------------------------|

G|----------------------------------------------------------------------------|
D|----------------------------------------------------------------------------|
A|-0-0-0-0-0-0-0-0-1-1-1-1-1-1-1-1-2-----2-----2---2\-------------------------|
E|----------------------------------------------------------------------------|

[Chorus]

G|----------------------------------------------------------------------------|
D|----------------------------------------------------------------------------|
A|---------------------------------5---5-5---5-5------------------------------|
E|-0---0-0---0-0---5---5-5---5-5-------------------3---3---2---2--------------|

G|----------------------------------------------------------------------------|
D|----------------------------------------------------------------------------|
A|-3---3-3---3-3---2---2-2---2-2---1---1-1---1-1---2-2-2-2-2-2-2-3------------|
E|----------------------------------------------------------------------------|

G|----------------------------------------------------------------------------|
D|----------------------------------------------------------------------------|
A|---3-3---3--3----5---5-5---5-5---6---6-6---6-6---7---/----------------------|
E|---------------------------------------------------------0---0--------------|

G|----------------------------------------------------------------------------|
D|---------------------------------------------7---6--------------------------|
A|-3---3-3---3-3---5---5-5---5-5-----------------------7----------------------|
E|---------------------------------0---0-7---7-------------7---5--------------|

[After-Chorus]

G|----------------------------------------------------------------------------|
D|----------------------------------------------------------------------------|
A|-------------------------------5---5-5---5---5------------------------------|
E|-0---0---0---0-5---5-5---5---5-------------------3---3---2---2/-------------|

G|------------------------------------------------------12--------------------|
D|----------------------------------------------------------------------------|
A|-------------------------------5-----5---5---5---10--------9---9------------|
E|-0---0---0---0-5---5-5---5---5----------------------------------------------|

G|----------------------------------------------------------------------------|
D|----------------------------------------------------------------------------|
A|-7---/-------------------------5---5-5---5---5------------------------------|
E|---------0-----5---5-5---5---5-------------------3---3---2---2--------------|

G|----------------------------------------------------------------------------|
D|------------------------------------------------------10---9----------------|
A|-------------------------------5---5-5---5---5---10------------10-----------|
E|-0---0---0---0-5---5-5---5---5----------------------------------------------|

[Verse]

G|-------------------------9-------------------------------9------------------|
D|---------9-------------------------------9----------------------------------|
A|-7---7-------7-7---7-7-------7---7---7-------7-7---7-7-------7--------------|
E|----------------------------------------------------------------------------|

G|----------------------------------------------------------------------------|
D|---------5-------------------------------5----------------------------------|
A|-3---3-------3-3---3-3---3---3---3---3-------3-3---3-3---3---3--------------|
E|----------------------------------------------------------------------------|

G|----------------------------------------------------------------------------|
D|---------4---------------7---------------4---------------7------------------|
A|-5---5-------5-5---5-5-------5---6---6-------6-6---6-6-------6--------------|
E|----------------------------------------------------------------------------|

G|----------------------------------------------------------------------------|
D|----------------------------------------------------------------------------|
A|-7-----------------------5---6---7------------------------------------------|
E|-----0---3---3-5---5-6---------------0---3---3-5---5-6---5---3--------------|

G|----------------------------------------------------------------------------|
D|----------------------------------------------------------------------------|
A|-7---7---7---7-7---7-7---7---7---7-------5---7-7---7-10--9---7--------------|
E|-------------------------------------7--------------------------------------|

G|---------------------------------5-----4------------------------------------|
D|---------------------------------------------5-------5----------------------|
A|-3---3-------3-3---3-----2---3---------------------------2---3--------------|
E|---------3-----------3------------------------------------------------------|

G|----------------------------------------------------------------------------|
D|---------4---4-5---5-7---4---------------4---4-5---5-7----------------------|
A|-5---5-----------------------5---6---6-------------------5---6--------------|
E|----------------------------------------------------------------------------|

G|-----------------------------7-7-9-7----------------------------------------|
D|---------------------7-8-9-9---------9-8-7-5-7-9-7-5------------------------|
A|-7\--------------------------------------------------7-5-2p0----------------|
E|---------0-0-0-0-0-0-----------------------------------------3-0------------|

[Pre-Chorus]

G|----------------------------------------------------------------------------|
D|----------------------------------------------------------------------------|
A|-3-3-3-3-3-3-3-3-3-3-3-3-3-3-3-3-3-3-3-3-3-3-3-3-3-3-3-3-3-3-3-3------------|
E|----------------------------------------------------------------------------|

G|----------------------------------------------------------------------------|
D|----------------------------------------------------------------------------|
A|-7/-------------------------------------------------------------------------|
E|-------0-0-0-0-0-0-0-0-0-0-0-0-0-0-0-0-0-0-0-0-0-0-0-0-0-0-0-0-0------------|

G|----------------------------------------------------------------------------|
D|----------------------------------------------------------------------------|
A|-3-3-3-3-3-3-3-3-3-3-3-3-3-3-3-3-3-3-3-3-3-3-3-3-3-3-3-3-3-3-3/-------------|
E|----------------------------------------------------------------------------|

G|----------------------------------------------------------------------------|
D|----------------------------------------------------------------------------|
A|-0-0-0-0-0-0-0-0-1-1-1-1-1-1-1-1-2-----2-----2---2\-------------------------|
E|----------------------------------------------------------------------------|

[Chorus]

G|----------------------------------------------------------------------------|
D|----------------------------------------------------------------------------|
A|---------------------------------5---5-5---5-5------------------------------|
E|-0---0-0---0-0---5---5-5---5-5-------------------3---3-3-2---2-2------------|

G|----------------------------------------------------------------------------|
D|----------------------------------------------------------------------------|
A|-3---3-3---3-3---2---2-2---2-2---1---1-1---1-1---2-2-2-2-2-2-2-3------------|
E|----------------------------------------------------------------------------|

G|----------------------------------------------------------------------------|
D|----------------------------------------------------------------------------|
A|---3-3---3--3----5---5-5---5-5---6---6-6---6-6---7---/----------------------|
E|---------------------------------------------------------0---0--------------|

G|----------------------------------------------------------------------------|
D|---------------------------------------------7---6--------------------------|
A|-3---3-3---3-3---5---5-5---5-5-----------------------7----------------------|
E|---------------------------------0---0-7---7-------------7---5--------------|

G|----------------------------------------------------------------------------|
D|---------------------------------------7---7--------------------------------|
A|-7---7-10--10-9--12--10--9--10---5---5-------5-------5----------------------|
E|-------------------------------------------------3-------2---2--------------|

G|----------------------------------------------------------------------------|
D|----------------------------------------------------------------------------|
A|-3---3-3---3-3---2---2-2---2-2---1---1-1---1-1---2-2-2-2-2-2-2-3------------|
E|----------------------------------------------------------------------------|

G|----------------------------------------------------------------------------|
D|----------------------------------------------------------------------------|
A|---3-3---3--3----5---5-5---5-5---6---6-6---6-6---7---/----------------------|
E|---------------------------------------------------------0---0--------------|

G|----------------------------------------------------------------------------|
D|----------------------------------------------------------------------------|
A|-3---3-3---3-3---5---5-5---5-5----------------------------------------------|
E|---------------------------------0---0-7---7-7---12--12--12--12-------------|

[Bridge]

G|----------------------------------------------------------------------------|
D|----------------------------------------------------------------------------|
A|-8--------------------------------------------------------------------------|
E|----------------------------------------------------------------------------|

G|----------------------------------------------------------------------------|
D|----------------------------------------------------------------------------|
A|-7--------------------------------------------------------------------------|
E|----------------------------------------------------------------------------|

G|----------------------------------------------------------------------------|
D|----------------------------------------------------------------------------|
A|-8-------------------------------10-----------------------------------------|
E|----------------------------------------------------------------------------|

G|----------14----------------------------------------------------------------|
D|----12-16----16-12----12----------12----------------------------------------|
A|-14----------------14-------10-14----14-10----10----------------------------|
E|-------------------------12----------------12-------------------------------|

G|----------16----------------16----------------16----------------------------|
D|----14-17----17-14----14-17----17-14----14-17-------------------------------|
A|-15----------------15----------------15-------------------------------------|
E|----------------------------------------------------------------------------|

G|----------14----------------14----------------14----------------------------|
D|----12-16----16-12----12-16----16-12----12-16-------------------------------|
A|-14----------------14----------------14-------------------------------------|
E|----------------------------------------------------------------------------|

G|----------16-------------------11-14-11-------------------------------------|
D|----14-17----17-14----14----12----------12----12----------------------------|
A|-15----------------15----12----------------12-------------------------------|
E|----------------------------------------------------------------------------|

G|----------14----------------------12----------------------------------------|
D|----12-16----16-12----12----13-16----16-13----------------------------------|
A|-14----------------14----14----------------14\------------------------------|
E|----------------------------------------------------------------------------|

[Solo]

G|----------------------------------------------------------------------------|
D|----------------------------------------------------------------------------|
A|----------------------------------------------------------------------------|
E|-0---0---0---0-0---0-0---0---0---0---0---0---0-0---0-0---0---0--------------|

G|----------------------------------------------------------------------------|
D|----------------------------------------------------------------------------|
A|-3---3---3---3-3---3-3---3---3---3---3---3---3-3---3-3---3---3--------------|
E|----------------------------------------------------------------------------|

G|----------------------------------------------------------------------------|
D|----------------------------------------------------------------------------|
A|-5---5---5---5-5---5-5---5---5---6---6---6---6-6---6-6---6---6--------------|
E|----------------------------------------------------------------------------|

G|-----------------------------7-7-9-7----------------------------------------|
D|---------------------7-8-9-9---------9-8-7-5-7-9-7-5------------------------|
A|-7\--------------------------------------------------7-5-2p0----------------|
E|---------0-0-0-0-0-0-----------------------------------------3-0------------|

[Pre-Chorus]

G|----------------------------------------------------------------------------|
D|----------------------------------------------------------------------------|
A|-3-3-3-3-3-3-3-3-3-3-3-3-3-3-3-3-3-3-3-3-3-3-3-3-3-3-3-3-3-3-3-3------------|
E|----------------------------------------------------------------------------|

G|----------------------------------------------------------------------------|
D|----------------------------------------------------------------------------|
A|-7/-------------------------------------------------------------------------|
E|-------0-0-0-0-0-0-0-0-0-0-0-0-0-0-0-0-0-0-0-0-0-0-0-0-0-0-0-0-0------------|

G|----------------------------------------------------------------------------|
D|----------------------------------------------------------------------------|
A|-3-3-3-3-3-3-3-3-3-3-3-3-3-3-3-3-3-3-3-3-3-3-3-3-3-3-3-3-3-3-3/-------------|
E|----------------------------------------------------------------------------|

G|----------------------------------------------------------------------------|
D|----------------------------------------------------------------------------|
A|-0-0-0-0-0-0-0-0-1-1-1-1-1-1-1-1-2-----2-----2---2\-------------------------|
E|----------------------------------------------------------------------------|

[Chorus]

G|----------------------------------------------------------------------------|
D|----------------------------------------------------------------------------|
A|---------------------------------5---5-5---5-5------------------------------|
E|-0---0-0---0-0---5---5-5---5-5-------------------3---3-3-2---2-2------------|

G|----------------------------------------------------------------------------|
D|----------------------------------------------------------------------------|
A|-3---3-3---3-3---2---2-2---2-2---1---1-1---1-1---2-2-2-2-2-2-2-3------------|
E|----------------------------------------------------------------------------|

G|----------------------------------------------------------------------------|
D|----------------------------------------------------------------------------|
A|---3-3---3--3----5---5-5---5-5---6---6-6---6-6---7---/----------------------|
E|---------------------------------------------------------0---0--------------|

G|----------------------------------------------------------------------------|
D|---------------------------------------------7---6--------------------------|
A|-3---3-3---3-3---5---5-5---5-5-----------------------7----------------------|
E|---------------------------------0---0-7---7-------------7---5--------------|

G|----------------------------------------------------------------------------|
D|---------------------------------------7---7---------12---------------------|
A|-7---7-10--10-9--12--10--9--10---5---5-------5---10------9---9--------------|
E|----------------------------------------------------------------------------|

G|----------------------------------------------------------------------------|
D|-------5---5-4---------5---5-4---8---8-5---5-4------------------------------|
A|-3---3-----------2---2---------------------------2-2-2-2/-\----3------------|
E|----------------------------------------------------------------------------|

G|----------------------------------------------------------------------------|
D|----------------------------------------------------------------------------|
A|---3-3---3--3----5---5-5---5-5---6---6-6---6-6---7---/----------------------|
E|---------------------------------------------------------0---0--------------|

G|----------------------------------------------------------------------------|
D|---------------------------------------------7---6--------------------------|
A|-3---3-3---3-3---5---5-5---5-5-----------------------7----------------------|
E|---------------------------------0---0-7---7-------------7---5--------------|

[Outro]

G|----------------------------------------------------------------------------|
D|----------------------------------------------------------------------------|
A|-------------------------------5---5-5---5---5------------------------------|
E|-0---0---0---0-5---5-5---5---5-------------------3---3---2---2/-------------|

G|----------------------------------------------------------------------------|
D|------------------------------------------------------10---9----------------|
A|-------------------------------5---5-5---5---5---10------------10-----------|
E|-0---0---0---0-5---5-5---5---5----------------------------------------------|

G|----------------------------------------------------------------------------|
D|----------------------------------------------------------------------------|
A|-7---\-------------------------5---5-5---5---5------------------------------|
E|---------0-----5---5-5---5---5-------------------3---3---2---2--------------|

G|----------------------------------------------------------------------------|
D|----------------------------------------------------------------------------|
A|-------------------------------5---5-5---5---5------------------------------|
E|-0---0---0---0-5---5-5---5---5-----------------0----------------------------|


************************************

| p   Pull-off
| /   Slide up
| \   Slide down

************************************

            
            
Suggest correction
Creating personal tab
Creating personal tab
You can edit any tab online and save it as your Personal.

You can edit, replace or remove any tab part or add personal notes – all changes will be seen only by you.

Personal tabs can be accessed anytime from any device, even offline.
Learn more »
Give kudos to tab author, rate the tab!
1 2 3 4 5
comments
print report bad tab
guest
You may want to rate the tab now too:
select rating
Wanna post a correction for this tab? Suggest correction