Oops, an error
Loading. Please wait.

Cantonese Boy bass

by Japan
1,553 views 6 this week
no commentswrite comment
1 2 3 4 5
1 last vote to show rating
add to favorites
×
Save as Personal and add changes to this tab that will be seen only by you. Learn more ›
×
You can save this tab as Personal to edit and correct it or add notes. All changes will be seen only by you. Learn more »
launch autoscroll
font size
0
reset
guitar tuner
edit
Autoscroll
slow
fast
+/-
esc
set tempo
stop
Author
Difficulty
 Cantonese Boy
 ARTIST: Japan
 ALBUM: Tin Drum
 BASSIST: Mick Karn
 TAB BY chris_70653223@hotmail.com

A classic mick karn bassline and a nightmare to work out. There are some 
variations to each riff!!! And he swaps the order they are played in!!

Verse
Riff 1                           (A)          Variation to riff 1
G|----------------------------7-------7-------|---7-------7-------------|
D|----------x--7---9--------------9-----------|-------9-----------------|
A|--2---5-------------------------------------|---------------0---------|
E|---------------------0----------------------|-------------------------|



Riff 2                           (B)          Variation to riff 2
G|----------------------------12--11----------|---12--11----------------|
D|----------x--7---9------------------9--12\--|-----------9--12\--------|
A|--2---5-------------------------------------|--------------------0--2-|
E|---------------------0----------------------|-------------------------|



Riff 3                          (C)           Variation to riff 3
G|----------------------------12h11-----------|----12h11----------------|
D|----------x--7---9--------------------------|-------------------------|
A|--2---5-----------------------------0--5--5-|-----------0--5--5--0----|
E|---------------------0----------------------|-------------------------|



Riff 4                         (D)            Variation to riff 4
G|----------------------------9/-11-----------|----9/-11----------------|
D|----------x--7---9------------------12-12---|-----------12-12---------|
A|--2---5-------------------------------------|------------------0------|
E|---------------------0----------------------|-------------------------|



Chorus                         (E)
G|----------6-----------------h11--------------8----------------9h11\---|
D|----------4---------------9-----11-----------6----------9h11----------|
A|--------------------1-------------------------------------------------|
E|--0--2-----------2-------------------2--4---------0--0----------------|



                               (F)  End of the chorus he changes to this
G|----------6-----------------h11--------------8------------------9--11-|
D|----------4---------------9-----11-----------6-----------9--11--------|
A|--------------------1-------------------------------------------------|
E|--0--2-----------2-------------------2--4---------0--0----------------|



Outro                          (G)     
G|----------------------h11---------------------------------------------|
D|------7------------9-------9-h11----------7---------------------------|
A|----------------------------------------------------------------------|
E|--0--------0------------------------0---------0-------0--0--0--0------|



Variation to the outro played twice                           End
G|-----------------9---9------------------------------------|-----------|
D|-----7--------------------------7-------------------------|-----7-----|
A|------------------------------------------------------------|---------|
E|--0-------0-----------------0--------0-------0--0--0--0--|---0----0*--|

            
            
Suggest correction
Creating personal tab
Creating personal tab
You can edit any tab online and save it as your Personal.

You can edit, replace or remove any tab part or add personal notes – all changes will be seen only by you.

Personal tabs can be accessed anytime from any device, even offline.
Learn more »
Give kudos to tab author, rate the tab!
1 2 3 4 5
comments
print report bad tab
guest
You may want to rate the tab now too:
select rating
Wanna post a correction for this tab? Suggest correction