Oops, an error
Loading. Please wait.

Still Life In Mobile Homes bass

by Japan
1,189 views 1 this week
no commentswrite comment
1 2 3 4 5
x 5
add to favorites
×
Save as Personal and add changes to this tab that will be seen only by you. Learn more ›
×
You can save this tab as Personal to edit and correct it or add notes. All changes will be seen only by you. Learn more »
launch autoscroll
font size
0
reset
guitar tuner
edit
Autoscroll
slow
fast
+/-
esc
set tempo
stop
Author
Difficulty
 Still Life in Mobile Homes
 ARTIST: Japan
 ALBUM: Tin Drum
 BASSIST: Mick Karn
 TAB BY chris_70653223@hotmail.com

 
 Main Verse Riff 1                                  
G|---------------------------------------------7---------------------|
D|-------9/10\9/10---------------0-0----5-5--------------------------|
A|--0---------------12---0-------------------------------------------|
E|-------------------------------------------------------------------|
                                |---------------| See Variation


 Main Verse Riff 2                                 
G|---------------------------------------------7---------------------|
D|-------9/12\9/12---------------0-0----5-5--------------------------|
A|--0----------------12---0------------------------------------------|
E|-------------------------------------------------------------------|


 Variation                                  
G|------------------7------------------------------------------------|
D|--0-0----5----5--------5-------------------------------------------|
A|-------------------------------------------------------------------|
E|-------------------------------------------------------------------|




G|-------------------------------------------------------------------|
D|-------------------------3-------------3---------------/12--12-----|
A|------7\--5\----------------------------------------------------12-|
E|--------------5\------1-----1-------1-----1-----1------------------|




 Chorus                                   
G|-----4--2----------------------------------------------------------|
D|-----------4------------------------------------------------9------|
A|--2-----------2-2-----3-3/15\3-----3------------------7--5-----7---|
E|--------------------------------------2--2--0----------------------|
                                                       |-----------|
                                                     Changes at the end
                                                       of the chorus

                                   
G|---------------|----------------------------------------------------|
D|---------------|--------5--7----------------------------------------|
A|--0---0-2-5----|--5--3----------------------------------------------|
E|---------------|----------------------------------------------------|

            
            
Suggest correction
Creating personal tab
Creating personal tab
You can edit any tab online and save it as your Personal.

You can edit, replace or remove any tab part or add personal notes – all changes will be seen only by you.

Personal tabs can be accessed anytime from any device, even offline.
Learn more »
comments
print report bad tab
guest
You may want to rate the tab now too:
select rating
Wanna post a correction for this tab? Suggest correction