Oops, an error
Loading. Please wait.

Visions Of China Bass Tab

version 1
version 1

Whole song

3,036 views 1 this week
no commentswrite comment
1 2 3 4 5
1 last vote to show rating
add to favorites
launch autoscroll
font size
0
reset
guitar tuner
Autoscroll
slow
fast
+/-
esc
set tempo
stop
Help us to improve Ultimate-Guitar.com Take our survey!
×
Author
Difficulty
intermediate
Band: Japan
Song: Visions of China
Tabber: Sebolon

You'll need a fretless to get the right sound


Main Part

g|---------------------9>11>9-----------8-8--6h8<7---|
d|-----------------9-11--------8---9h11--------------|
a|-------------9h11----------------------------------|
e|---4-----------------------------------------------|

g|----------------------9>11>9<11--------------------|
d|---6--------------9-11---------11--------4-4--6----|
a|-------------9h11---------------------4h6----------|
e|---------------------------------------------------|

g|---------------------9>11>9-----------8-8--6h8<7---|
d|-----------------9-11--------8---9h11--------------|
a|-------------9h11----------------------------------|
e|---4-----------------------------------------------|

g|----------------------9>11>9<11--------------------|
d|---6--------------9-11---------11---------4-----4--|
a|-------------9h11---------------------4>6---4>6----|
e|---------------------------------------------------|
Suggest correction
Give kudos to tab author, rate the tab!
1 2 3 4 5
comments
print report bad tab
guest
You may want to rate the tab now too:
select rating
Wanna post a correction for this tab? Suggest correction