Oops, an error
Loading. Please wait.

Voltes 5 tab

version 1
version 1

Whole song

by Japan
15,499 views 9 this week
2 commentsread comments
1 2 3 4 5
2 more votes to show rating
add to favorites
×
Save as Personal and add changes to this tab that will be seen only by you. Learn more ›
×
You can save this tab as Personal to edit and correct it or add notes. All changes will be seen only by you. Learn more »
launch autoscroll
font size
0
reset
how to read this tab
guitar tuner
edit
Autoscroll
slow
fast
+/-
esc
set tempo
stop
Author
Voltes 5 instrumental
Tabbed by:  DK Lim
Tempo : March or 8 beat
Email:  dk_lim0507@yahoo.com, dklim0514@hotmail.com

[Intro]
e|-----------------------------------2--------------------1h3 -3----3-----1--3---3---3  \slide -5--|
B|-----1 h 3 --3---3----1--3----------3------------------------------------------------------------|
G|-------------------------------------------------------------------------------------------------|
D|-------------------------------------------------------------------------------------------------|
A|-------------------------------------------------------------------------------------------------|
E|-------------------------------------------------------------------------------------------------|

e|--------------3-1-0--------- ---------------------------------------|
B|-----------------------3--1-----------------------------------------|
G|--------------------------------------------------------------------|
D|--------------------------------------------------5--3--2-----------|
A|--------------------------------------------------------------5--3--|
E|--------------------------------------------------------------------|

      Dm                 Gm            A                Dm
e|-------------1--3\5-5--3-1-3-3--3\5--3----------0-0---1--3-3-1-0-1-1-3-3\5----------------------|
B|-----3-3----------------------------------------------------------------------------------------|
G|------------------------------------------------------------------------------------------------|
D|------------------------------------------------------------------------------------------------|
A|-------------------------------------------------------0-0---0--0-0-0-0-0-----------------------|
E|------------------------------------------------------------------------------------------------|

    Gm                       Dm             A                  Dm
e|-------3-3---6--6\10-10--8--6--5------------5-------------------------5--------------|
B|----3---------------------------------6--8---------8--6-5-------5-5------8-6-5-------|
G|----------------------------------------------------------------------------------7--|
D|-------------------------------------------------------------------------------------|
A|-------------------------------------------------------------------------------------|
E|-------------------------------------------------------------------------------------|

         C       F               E           Am       Bb       A

e|-----------------------------------/pull  5-------5-5--/4-4-4-5--7--/pull-8---8-8--6-6------5-5---------|
B|--------------------5-5-6-8-6-8---------------------------------------------------------6-8-----5-------|
G|--7-7 \5--5--5-------------------------------------------------------------------------------------5-7--|
D|--------------------------------------------------------------------------------------------------------|
A|--------------------------------------------------------------------------------------------------------|
E|--------------------------------------------------------------------------------------------------------|

[Chorus
]
   Dm                        Bb           A    Gm

e|---3\10--8-10--8-10--8--/pull-5-----6-6-6-6----------/pull-5------------------5----------|
B|-----------------------------------------------6--8------------0\8--8-8--6-8-----6-------|
G|--------------------------------------------------------------------------------------7--|
D|-----------------------------------------------------------------------------------------|
A|-----------------------------------------------------------------------------------------|
E|-----------------------------------------------------------------------------------------|

     A  A7      A         Dm           Gm      A              Dm
e|---------------------------------------------------10--8------------9--9--9--12--10-------------------|
B|--5-5-5--8-6--/pull5------5-6-5---------------------------11------------------------------------------|
G|---------------------------------------7-----7--------------------------------------------------------|
D|------------------------------------------------------------------------------------------------------|
A|------------------------------------------------------------------------------------------------------|
E|------------------------------------------------------------------------------------------------------|

[Super Fast
]
e|----8-8------8--11p-9--8-------6-6---9p7---6------4---4--7p5-4----|
B|--------10--------------10---------8---------8------6----------6--|
G|------------------------------------------------------------------|
D|------------------------------------------------------------------|
A|------------------------------------------------------------------|
E|------------------------------------------------------------------|

e|--------------3-1-0--------- ---------------------------------------|
B|-----------------------3--1-----------------------------------------|
G|--------------------------------------------------------------------|
D|--------------------------------------------------5--3--2-----------|
A|--------------------------------------------------------------5--3--|
E|--------------------------------------------------------------------|

[Ending
]
e|------------------- -----------------|
B|-------------------------------------|
G|------5--3h5--\7--5-----7-5h7--\9-7--|
D|-------------------------------------|
A|-------------------------------------|
E|-------------------------------------|

e|-------6------6 ------8-------------6-----6 -------8--|
B|-------3-----3--------5-------------3-----3--------5--|
G|-------3-----3--------5-------------3-----3--------5--|
D|-------3-----3--------5-------------3-----3--------5--|
A|------------------------------------------------------|
E|------------------------------------------------------|


***********************

| /  slide up
| \  slide down
| h  hammer-on
| p  pull-off
| ~  vibrato
| +  harmonic
| x  Mute note

***********************

            
            
Suggest correction
Creating personal tab
Creating personal tab
You can edit any tab online and save it as your Personal.

You can edit, replace or remove any tab part or add personal notes – all changes will be seen only by you.

Personal tabs can be accessed anytime from any device, even offline.
Learn more »
Give kudos to tab author, rate the tab!
1 2 3 4 5
comments
print report bad tab
2 comments total.
0 reply
remarusa 74 Sep 12, 2009 11:51 AM

cool, specially the chords but it's not complete =( it changes a bit a head

0 reply
dk_lim 203 Sep 03, 2016 10:12 AM

I updated the Voltes 5. enjoy

guest
You may want to rate the tab now too:
select rating
Wanna post a correction for this tab? Suggest correction