Oops, an error
Loading. Please wait.

Diving Woman tab

58 views 36 this week
no commentswrite comment
1 2 3 4 5
3 more votes to show rating
add to favorites
×
Save as Personal and add changes to this tab that will be seen only by you. Learn more ›
×
You can save this tab as Personal to edit and correct it or add notes. All changes will be seen only by you. Learn more »
launch autoscroll
font size
0
reset
how to read this tab
guitar tuner
edit
Autoscroll
slow
fast
+/-
esc
set tempo
stop
[Intro and Verse 1]

e|----------------------------|----------------------------|
B|-----0--------0-------------|-----0--------0-------------|
G|--2--------2--------2-------|--2--------2--------2-------|
D|----------------------------|----------------------------|
A|----------------------------|----------------------------|
E|----------------------------|----------------------------|

e|----------------------------|----------------------------|
B|-----0--------0-------------|-----0--------0-------------|
G|--2--------2--------2-------|--2--------2--------2-------|
D|----------------------------|----------------------------|
A|----------------------------|----------------------------|
E|----------------------------|----------------------------|

e|--------------0-------------|----------------------------|
B|-----0--------0-------------|-----0--------0-------------|
G|--2--------2--------2-------|--2--------2--------2-------|
D|----------------------------|----------------------------|
A|----------------------------|----------------------------|
E|----------------------------|----------------------------|

e|----------------------------|----------------------------|
B|-----0--------0-------------|-----0--------0-----0-------|
G|--2--------2--------2-------|--2--------2----------------|
D|----------------------------|----------------------------|
A|----------------------------|----------------------------|
E|----------------------------|----------------------------|

[Bridge 1]

e|--12b11---------------------|----------------------------|
B|-----------10b------12------|----------------------------|
G|----------------------------|-----8b-------8-------------|
D|----------------------------|----------------------------|
A|----------------------------|----------------------------|
E|----------------------------|----------------------------|
    (full bends)

e|----------------------------|----------------------------|
B|----------------------------|----------------------------|
G|----------------------------|----------------------------|
D|----------------------------|----------------------------|
A|----------------------------|----------------------------|
E|----------------------------|----------------------------|
    (sustain)

e|----------------------------|----------------------------|
B|----------------------------|----------------------------|
G|--9-------------------------|----------------------------|
D|----------------------------|----------------------------|
A|----------------------------|----------------------------|
E|----------------------------|----------------------------|
    (sustain)

e|----------------------------|----------------------------|
B|----------------------------|----------------------------|
G|----------------------------|----------------------------|
D|--\-------------------------|----------------------------|
A|----------------------------|----------------------------|
E|----------------------------|----------------------------|

e|--12b11---------------------|----------------------------|
B|-----------10b------12------|----------------------------|
G|----------------------------|-----8b-------8-------------|
D|----------------------------|----------------------------|
A|----------------------------|----------------------------|
E|----------------------------|----------------------------|
    (full bends)

e|----------------------------|----------------------------|
B|----------------------------|----------------------------|
G|----------------------------|----------------------------|
D|----------------------------|----------------------------|
A|----------------------------|----------------------------|
E|----------------------------|----------------------------|
    (sustain)

e|----------------------------|----------------------------|
B|----------------------------|----------------------------|
G|--11------------------------|----------------------------|
D|----------------------------|----------------------------|
A|----------------------------|----------------------------|
E|----------------------------|----------------------------|
    (sustain)

e|----------------------------|----------------------------|
B|----------------------------|----------------------------|
G|----------------------------|----------------------------|
D|--\-------------------------|----------------------------|
A|----------------------------|----------------------------|
E|----------------------------|----------------------------|

[Verse 2]

e|----------------------------|----------------------------|
B|-----0--------0-------------|-----0--------0-------------|
G|--2--------2--------2-------|--2--------2--------2-------|
D|----------------------------|----------------------------|
A|----------------------------|----------------------------|
E|----------------------------|----------------------------|

e|----------------------------|----------------------------|
B|-----0--------0-------------|-----0--------0-------------|
G|--2--------2--------2-------|--2--------2--------2-------|
D|----------------------------|----------------------------|
A|----------------------------|----------------------------|
E|----------------------------|----------------------------|

e|--------------0-------------|----------------------------|
B|-----0--------0-------------|-----0--------0-------------|
G|--2--------2--------2-------|--2--------2--------2-------|
D|----------------------------|----------------------------|
A|----------------------------|----------------------------|
E|----------------------------|----------------------------|

e|----------------------------|----------------------------|
B|-----0--------0-------------|-----0--------0-----0-------|
G|--2--------2--------2-------|--2--------2----------------|
D|----------------------------|----------------------------|
A|----------------------------|----------------------------|
E|----------------------------|----------------------------|

[Bridge 2]

e|--12b11---------------------|----------------------------|
B|-----------10b------12------|----------------------------|
G|----------------------------|-----8b-------8-------------|
D|----------------------------|----------------------------|
A|----------------------------|----------------------------|
E|----------------------------|----------------------------|
    (full bends)

e|----------------------------|----------------------------|
B|----------------------------|----------------------------|
G|----------------------------|----------------------------|
D|----------------------------|----------------------------|
A|----------------------------|----------------------------|
E|----------------------------|----------------------------|
    (sustain)

e|----------------------------|----------------------------|
B|----------------------------|----------------------------|
G|--9-------------------------|----------------------------|
D|----------------------------|----------------------------|
A|----------------------------|----------------------------|
E|----------------------------|----------------------------|
    (sustain)

e|----------------------------|----------------------------|
B|----------------------------|----------------------------|
G|----------------------------|----------------------------|
D|--\-------------------------|----------------------------|
A|----------------------------|----------------------------|
E|----------------------------|----------------------------|

e|--12b11---------------------|----------------------------|
B|-----------10b------12------|----------------------------|
G|----------------------------|-----8b-------8-------------|
D|----------------------------|----------------------------|
A|----------------------------|----------------------------|
E|----------------------------|----------------------------|
    (full bends)

e|----------------------------|----------------------------|
B|----------------------------|----------------------------|
G|----------------------------|----------------------------|
D|----------------------------|----------------------------|
A|----------------------------|----------------------------|
E|----------------------------|----------------------------|
    (sustain)

e|----------------------------|----------------------------|
B|----------------------------|----------------------------|
G|--11------------------------|----------------------------|
D|----------------------------|----------------------------|
A|----------------------------|----------------------------|
E|----------------------------|----------------------------|
    (sustain)

e|----------------------------|----------------------------|
B|----------------------------|----------------------------|
G|----------------------------|----------------------------|
D|--\-------------------------|----------------------------|
A|----------------------------|----------------------------|
E|----------------------------|----------------------------|

[Solo and Ending]

e|----------------------------|----------------------------|
B|-----0-----0-----0-----0----|-----0-----0-----0-----0----|
G|--9-----9-----9-----9-------|--8-----8-----8-----8-------|
D|----------------------------|----------------------------|
A|----------------------------|----------------------------|
E|----------------------------|----------------------------|

e|----------------------------|----------------------------|
B|-----0-----0-----0-----0----|-----0-----0-----0-----0----|
G|--14----14----14----14------|--13----13----13----13------|
D|----------------------------|----------------------------|
A|----------------------------|----------------------------|
E|----------------------------|----------------------------|

e|----------------------------|----------------------------|
B|-----0-----0-----0-----0----|-----0-----0-----0-----0----|
G|--9-----9-----9-----9-------|--6-----6-----6-----6-------|
D|----------------------------|----------------------------|
A|----------------------------|----------------------------|
E|----------------------------|----------------------------|

e|----------------------------|----------------------------|
B|-----0-----0-----0-----0----|-----0-----0-----0-----0----|
G|--4-----4-----4-----4-------|--4-----4-----4-----4-------|
D|----------------------------|----------------------------|
A|----------------------------|----------------------------|
E|----------------------------|----------------------------|

Guitar 2:
e|-<5>----------4-------------|-<5>----------4-------------|
B|----(0)----0----(0)---(0)---|----(0)----0----(0)---(0)---|
G|--------6-----------6-------|--------6-----------6-------|
D|----------------------------|----------------------------|
A|----------------------------|----------------------------|
E|----------------------------|----------------------------|
      (Ghost note is optional)

e|-<5>----------4-------------|-<5>----------4-------------|
B|----(0)----0----(0)---(0)---|----(0)----0----(0)---------|
G|--------6-----------6-------|--------6-----------6\------|
D|----------------------------|----------------------------|
A|----------------------------|----------------------------|
E|----------------------------|----------------------------|

e|----------------------------|----------------------------|
B|-----0--5--7--5-------------|--0--5--7--5-----------0----|
G|--6-------------------------|----------------------------|
D|-----------------7--6--7----|--------------7--6--7-------|
A|----------------------------|----------------------------|
E|----------------------------|----------------------------|

e|----------------------------|----------------------------|
B|--5--7--5-----------0--5----|--7--5-----------0--7/------|
G|----------------------------|----------------------------|
D|-----------7--6--7----------|--------7--6--7-------------|
A|----------------------------|----------------------------|
E|----------------------------|----------------------------|


************************************

| /     Slide up
| \     Slide down
| b     Bend
| <>    Harmonic
| ()    Ghost note

************************************

            
            
Suggest correction
Creating personal tab
Creating personal tab
You can edit any tab online and save it as your Personal.

You can edit, replace or remove any tab part or add personal notes – all changes will be seen only by you.

Personal tabs can be accessed anytime from any device, even offline.
Learn more »
Give kudos to tab author, rate the tab!
1 2 3 4 5
comments
print report bad tab
guest
You may want to rate the tab now too:
select rating
Wanna post a correction for this tab? Suggest correction