Oops, an error
Loading. Please wait.

Everybody Wants To Love You tab

1,720 views 39 this week
no commentswrite comment
1 2 3 4 5
x 3
add to favorites
×
Save as Personal and add changes to this tab that will be seen only by you. Learn more ›
×
You can save this tab as Personal to edit and correct it or add notes. All changes will be seen only by you. Learn more »
launch autoscroll
font size
0
reset
how to read this tab
guitar tuner
edit
Autoscroll
slow
fast
+/-
esc
set tempo
stop
Japanese Breakfast - Everybody Wants To Love You
================================================
Album: Psychopomp, 2016
Tuning: Standard

Note: Since this is only lead guitar and the song has no rhythm guitar, this might sound a bit
      "dull" without a full band. But I wrote the chords down (above the tabs) and if you are able to, 
      you can always add one of those chords inbetween to make it sound better. Have fun!

[Intro]
     N.C.
e||--12-12---15-15-15---12-|-12-12---15-15-15---12--||
B||o-12-12---12-12-12---12-|-12-12---12-12-12---12-o||
G||--12-12---12-12-12---12-|-12-12---12-12-12---12--|| (2x)
D||------------------------|------------------------||
A||o-----------------------|-----------------------o||
E||------------------------|------------------------||


[Verse]
   G                                              Em                       C
e|-12---------15-------12-|---------12-15-------|-12---------15-------12-|----------12-15-------|
B|----12---------12-------|---12----------12----|----12---------12-------|-12----12-------12----|
G|-------12---------12----|------12----------12-|-------12---------12----|----12-------------12-| [repeat]
D|------------------------|---------------------|------------------------|----------------------|
A|------------------------|---------------------|------------------------|----------------------|
E|------------------------|---------------------|------------------------|----------------------|
   Can I get your number....


[Chorus]
   Em                  C                   G
e|-------------------|-------------------|-0-0---3-3-3---0-|-0-0---3-3-3-----|
B|-8--------10-10-10-|-8--------10-10-10-|-0-0---0-0-0---0-|-0-0---0-0-0-----|
G|-9--------9--9--9--|-9--------9--9--9--|-0-0---0-0-0---0-|-0-0---0-0-0-----|
D|-9--------9--9--9--|-10-------10-10-10-|-----------------|-----------------|
A|-7--------7--7--7--|-10-------10-10-10-|-----------------|-----------------|
E|-------------------|-8--------8--8--8--|-----------------|-----------------|
   Everybody           wants to love you                    (everybody wants to love you)

   Em                  C                   G
e|-------------------|----------8----8-8-|---3-----5-----3-|---------5-------|
B|-8--------10-10-10-|-8--8--12-8----8-8-|-----0-----0-----|---0---0---0-----|
G|-9--------9--9--9--|-9--9--9--9--------|-0-----0-----0---|-----0-------0---|
D|-9--------9--9--9--|-------------------|-----------------|-----------------|
A|-7--------7--7--7--|-------------------|-----------------|-----------------|
E|-------------------|-------------------|-----------------|-----------------|
   Everybody           wants to love you                    (everybody wants to love you)

   Em                  C                   
e|-------------------|---------------------|
B|-8--------10-10-10-|-12-12-12---10-10-10-|
G|-9--------9--9--9--|-9--9--9----9--9--9--| (it's hard to make out what she actually plays during [ Em  C ],
D|-9--------9--9--9--|-10-10-10---10-10-10-|  but it's something along those lines. Just improvise!)
A|-7--------7--7--7--|---------------------|
E|-------------------|---------------------|


[Verse 2]
   G                                               Em                      C
e|-12-12---12h15-15---15p|-12-12---12h15-15---15p|-12-12---12h15-15---15p|-12-12---12h15-15---15p|
B|-12-12---12-12-12---12-|-12-12---12-12-12---12-|-12-12---12-12-12---12-|-12-12---12-12-12---12-|
G|-12-12---12-12-12---12-|-12-12---12-12-12---12-|-12-12---12-12-12---12-|-12-12---12-12-12---12-|
D|-----------------------|-----------------------|-----------------------|-----------------------|
A|-----------------------|-----------------------|-----------------------|-----------------------|
E|-----------------------|-----------------------|-----------------------|-----------------------|


[Solo] (16ths instead of 8ths now)
e|------12-12-12---10-10-10------------|-----------------------------------------|
B|-------------------------------12-12-|-12---10-10-10---8--8--8-----------------|
G|-------------------------------------|----------------------------9----7----9--|
D|-------------------------------------|-----------------------------------------|
A|-------------------------------------|-----------------------------------------|
E|-------------------------------------|-----------------------------------------|

e|------12-12-12---10-10-10------15-15-|-15--------------10-10-10---12---10------|
B|-------------------------------------|------10-10-10------------------------12~|
G|-------------------------------------|-----------------------------------------|
D|-------------------------------------|-----------------------------------------|
A|-------------------------------------|-----------------------------------------|
E|-------------------------------------|-----------------------------------------|

e|-------------------------------------|--------------12------------------------|
B|---------14------14---14-------------|----------------------------------------|
G|-14-14---14b-----14---14b---------14-|-14b------14b----14br---12--------12~---|
D|-------------------------------------|-----------------------------14---------|
A|-------------------------------------|----------------------------------------|
E|-------------------------------------|----------------------------------------|

e|---15p12---------------------------------|------15--------15---17b~------15~----|
B|---------15p12----------------------15---|-17--------17-------------------------|
G|---------------14p12-------12h14/16------|--------------------------------------|
D|---------------------14p12---------------|--------------------------------------|
A|-----------------------------------------|--------------------------------------|
E|-----------------------------------------|--------------------------------------|


************************************

| x   Dead note
| g   Grace note
| (n) Ghost note
| h   Hammer-on
| p   Pull-off
| r   Release
| >   Accented note
| t   Tapping
| b   Bend
| br  Bend release
| pb  Pre-bend
| pbr Pre-bend release
| /   Slide up
| \   Slide down
| ~   Vibrato
| s   Slap
| P   Pop
| PM  Palm mute
| TR  Trill
| N   Tremolo

************************************

            
            
Suggest correction
Creating personal tab
Creating personal tab
You can edit any tab online and save it as your Personal.

You can edit, replace or remove any tab part or add personal notes – all changes will be seen only by you.

Personal tabs can be accessed anytime from any device, even offline.
Learn more »
Give kudos to tab author, rate the tab!
1 2 3 4 5
comments
print report bad tab
guest
You may want to rate the tab now too:
select rating
Wanna post a correction for this tab? Suggest correction