Oops, an error
Loading. Please wait.
89 views 1 this week
no commentswrite comment
1 2 3 4 5
3 more votes to show rating
add to favorites
launch autoscroll
font size
0
reset
how to read this tab
guitar tuner
×
Best way to learn
"Adios"
Autoscroll
slow
fast
+/-
esc
set tempo
stop
Aqui esta el solo de 'adios'
Los tonos que lleva mientras se toca el solo son:
A, C#m, D, Dm


e|---------------------------------------------------|
B|-----------------------------------14^-17-14-------|
G|----------------------11--14-16-14-----------16-14-|
D|----------------10/12------------------------------|
A|-5/7~-7-9/11-11------------------------------------|
E|---------------------------------------------------|


e|-14-12---------------------------------------------------|
B|-------14h13h12-----14-14-14-14-14-14-14-14-17^-12^-10~--|
G|----------------14---------------------------------------|
D|---------------------------------------------------------|
A|---------------------------------------------------------|
E|---------------------------------------------------------|
Suggest correction
Give kudos to tab author, rate the tab!
1 2 3 4 5
comments
print report bad tab
guest
You may want to rate the tab now too:
select rating
Wanna post a correction for this tab? Suggest correction