Oops, an error
Loading. Please wait.

De Vuelta Y Vuelta Tab

version 1
version 1

Whole song

128 views 1 this week
no commentswrite comment
1 2 3 4 5
3 more votes to show rating
add to favorites
launch autoscroll
font size
0
reset
how to read this tab
guitar tuner
×
Best way to learn
"De Vuelta Y Vuelta"
Autoscroll
slow
fast
+/-
esc
set tempo
stop
Este es el solo final de la cancion, de vuelta y vuelta.
este solo va por la escala de Em, y va por las progresiones
Em,Am,C,D  X   4 Tiempo cada nota.


e/----------------------------------------------------------------------------------------/
b/-8-8-7-5--8-8-7-5--8-8-7-5--------------------8-8-7-5--8-8-7-5--8-8-7-5-----------------/
G/--------5---------5--------7vibrato-7slide9----------5---------5--------7vibrato-7slide9/  X  2
d/----------------------------------------------------------------------------------------/
a/----------------------------------------------------------------------------------------/
E/----------------------------------------------------------------------------------------/


e/----------------------------------------------------------------------------------------------------/
b/-8-8-7-5--8-8-7--8-8-7-5----------8-7-5-8-7-5-8-7-5-8-7-5--8-8-7-5-5-5---5-7-8----------------------/ 
g/--------5------5--------7vibrato-7-----7-----7-----7-----7--------7---7-7-----9-11-12-12-11-12-14-12/
d/----------------------------------------------------------------------------------------------------/
A/----------------------------------------------------------------------------------------------------/
E/----------------------------------------------------------------------------------------------------/


e/-------------------10-12-14-15-17-15-14-12-17-15-14-12-17-15-14-12---------/
b/------------12---12--------------------------------------------------------/
g/-12-12-11-12---------------------------------------------------------------/
d/---------------------------------------------------------------------------/
A/---------------------------------------------------------------------------/
E/---------------------------------------------------------------------------/


Con esto ya tienes casi toda la melodia  del solo, este solo es mas
largo, pero luego de hacer estos ligados que te di, improvisa por escalas de Em.
recuerda que el solo va por las progresiones,Em,Am,C,D  X 4 tiempos cada nota.
Suggest correction
Give kudos to tab author, rate the tab!
1 2 3 4 5
comments
print report bad tab
guest
You may want to rate the tab now too:
select rating
Wanna post a correction for this tab? Suggest correction