Oops, an error
Loading. Please wait.

De Vuelta Y Vuelta Tab

version 2
version 2

Whole song

101 views 3 this week
no commentswrite comment
1 2 3 4 5
3 more votes to show rating
add to favorites
launch autoscroll
font size
0
reset
how to read this tab
guitar tuner
×
Best way to learn
"De Vuelta Y Vuelta"
Autoscroll
slow
fast
+/-
esc
set tempo
stop
A ver que les parece:

Instrucciones:
0~~~  let ring, dejar sonar
5h7   hammer on
7p5   pull off

Intro 1ra parte:

|-------|
|-------|
|-------| Esto se toca varias veces durante toda la cancion 
|-------| con algun efecto, pero para que se escuche
|-------| como en la cancion, yo hago vibrar la cuerda, rozandola 
|-0~~~~-| con la púa o con la uña del dedo gordo

|---------------|
|---------------|
|-------0-----0-| Esto se toca 4 veces con el mismo efecto de 
|-----2-----2---| arriba.
|---2-----------|
|-0-------------|

Intro 2da parte:
|----------------------------------------------------2h3p2-----|
|-------3-----------------0-1---------3p1-------3----------3---|
|-----0-----0---0-------0-----------0---------2---2----------2-|
|---2---------2-------2-----------2---------0------------------|
|-------------------0-----------3------------------------------|
|-0------------------------------------------------------------|

|----------------------------------------------------2h3p2-----|
|-------3-----------------0-1---------3p1-------3----------3---|
|-----0-----0---0-------0-----------0---------2---2----------2-|
|---2---------2-------2-----------2---------0------------------|
|-------------------0-----------3------------------------------|
|-0------------------------------------------------------------|


Verso (aqui en el verso puedes seguir el mismo arpegeo o hacer uno propio)

Em                        Am    C                    D
Hoy el mundo ha dao otra vuelta, pero nadie me ha avisao
Em                    Am   C                   D
Hoy el tiempo me ha pillao, con un lío en la cabeza
Em          Am   C             D
Tirao en la cama, con ganas de nada
Em                    Am  C                  D   Riff 1
Hoy el tiempo se ha parao, en la hora que no era

                                                       Riff2
Hoy el mundo ha dao una vuelta, pero no me ha preguntao
Hoy estoy desafinao, hoy estoy de calavera
Y el alma partida, la pena encendida--Riff 2
En la acera me he sentao, a esperar la primavera--Riff 1

                 C    D7                 Em7   D7
Primavera que no llega, Primavera que no llega, 
                 C    D                  B7    C
Primavera que no llega, Primavera que no llega, 
                      
Primavera que no llega, Primavera que no llega, 
Primavera que no llega, Primavera que no llega, Riff 4 
     

Hoy el mundo ha dao otra vuelta, pero no me ha despertao
Hoy me levanté girao, hoy me levanté de vuelta--Riff 5
De capa caida, de lao con lavida--Riff 3
Hoy no estoy pa nadie, hoy estoy de vuelta--Riff1

             Em   Am            C     D
De vuelta de todo, de vuelta de nada
             Em   Am            C     D
De vuelta de todo, de vuelta de nada

De vuelta y vuelta, tan joven y de vuelta
De vuelta y vuelta, tan joven y de vuelta

Primavera que no llega, Primavera que no llega, 
Primavera que no llega, Primavera que no llega, 
                 
Primavera que no llega, Primavera que no llega, 
Primavera que no llega, Primavera que no llega,

Acordes:

C   X32010     
D   XX0232    
D7  XX0212
Em  022000 
Em7 022030  
Am  X02210
Am7 X02010 
B7  X21202  
           

|-----0----2-|
|---3--------|
|-2----------|
|------------|Riff 1
|------------|
|------------|

|---------------------|
|-----4-5--4h5p4------|
|-4-5-------------5-4-|
|---------------------|Riff 2
|---------------------|
|---------------------|

|---------------------|
|---------------------|
|-----4-5--4h5p4------|
|-4-5-------------5-4-|Riff 3
|---------------------|
|---------------------|

|-8-7h8p7-------------------|
|---------8---7h8p7---------|
|--------------------9-8-9--|
|---------------------------|Riff 4
|---------------------------|
|---------------------------|

|-----7-8-7h8p7-------|
|-7-8-----------8-7-8-|
|---------------------|
|---------------------|Riff 5
|---------------------|
|---------------------|

Nota: Para hacer arreglos, improvisar o etcetera, solo sigue
      las escalas de G mayor y de E menor pentatonica, las 
      cuales se forman con las notas:

        C D E F# G A B
Suggest correction
Give kudos to tab author, rate the tab!
1 2 3 4 5
comments
print report bad tab
guest
You may want to rate the tab now too:
select rating
Wanna post a correction for this tab? Suggest correction