Oops, an error
Loading. Please wait.

De Vuelta Y Vuelta Tab

version 3
version 3

Whole song

82 views 1 this week
no commentswrite comment
1 2 3 4 5
3 more votes to show rating
add to favorites
launch autoscroll
font size
0
reset
how to read this tab
guitar tuner
×
Best way to learn
"De Vuelta Y Vuelta"
Autoscroll
slow
fast
+/-
esc
set tempo
stop
Ésta es la intro que Jimmy toca con el saxo en la versión
del disco Orquesta reciclando.
No suena exactamente igual ya que el saxo y la guitarra
son muy distintos pero creo que no está del todo mal.


e|-----------------------------------------------------------------
B|-----------2/3--1~---0-------------------------------------------
G|--------0--------------2~---0h2--2/4--0-------------------------
D|----2h4----------------------------------1/2--0--2~----------------
A|-----------------------------------------------------------------
E|-----------------------------------------------------------------


e|-----------------------------------------------------------------
B|-----------3--3/5~--7/8--7--5--3--5/7--7--7/10--8~---------------
G|--------0--------------------------------------------------------
D|----2h4----------------------------------------------------------
A|-----------------------------------------------------------------
E|-----------------------------------------------------------------


e|----------------8/10--8~--7--5~--3h5--5/7--3----------------------
B|----7--5--7--8---------------------------------4/5--3--5~---------
G|-----------------------------------------------------------------
D|-----------------------------------------------------------------
A|-----------------------------------------------------------------
E|-----------------------------------------------------------------


e|----2/3--2~--0-----0--2~-----------------------------------------
B|----------------3----------3/4--5--5--7--7--8~-------------------
G|-----------------------------------------------------------------
D|-----------------------------------------------------------------
A|-----------------------------------------------------------------
E|-----------------------------------------------------------------


Un saludo!
Suggest correction
Give kudos to tab author, rate the tab!
1 2 3 4 5
comments
print report bad tab
guest
You may want to rate the tab now too:
select rating
Wanna post a correction for this tab? Suggest correction