Oops, an error
Loading. Please wait.

Dos Dias En La Vida Tab

180 views 1 this week
no commentswrite comment
1 2 3 4 5
3 more votes to show rating
add to favorites
launch autoscroll
font size
0
reset
how to read this tab
guitar tuner
×
Best way to learn
"Dos Dias En La Vida"
Autoscroll
slow
fast
+/-
esc
set tempo
stop
Esta canción es muy buena, a pesar de ser un cover de Celia Cruz:

Instrucciones:

5^  mini blend (DObLAs LA cuerda muy suavemente)
5b  blend (DObLAs LA cuerda completamente)
5/  slide to nowhere (tocas en el 5 y resbalas tu dedo hasta donde quieras)
5/7 slide (tocas en el 5 y resbalas tu dedo al 7)
7\5 slide (tocas en el 7 y resbalas tu dedo al 5)
7p5 pull off (tocas en el 7 y rapido levantas tu dedo)
5h7 hammer on (tocas en el 5 y rapido pones tu dedo en el 7)
5~  vibrato (le das a la barra del vibrato)
5** hold (la tocas sin callarlo)
x5  tap note (significa que colocas tu dedo ahí pero sin hacer fuerza)

Nota 1: a lo largo de este tab encontraras unas taches
mayúsculas, estas indican donde comienza el coro, no
las confundas con el tap note

Nota 2: todos los coros se tocan usando el riff 1

Nota 3: a lo largo de la canción hay muchos pequeños
riffs y me da hueva, asi que incluyo al final una
escala para que saques los pequeños adornos, después
de sacar lo primero, te sera muy facil el resto.

Nota 4: en algunas partes tendra que usar efectos, ya
sea el de jalar la cuerda y usar pedales, como al
principio, hasta otros que descubriras.

Te recomiendo tener la canción a tu lado en el momento
de tocarla.

Primera parte de la intro:

guitarra 1
|-8^p5-|-8^\5/12-12-|---5---|---------|-------------|-----------|------|
|------|------------|-6---5-|---------|-------------|-----------|-5----|
|------|------------|-------|-5\4-----|-5\4---------|-5\1-1-----|----2-|
|------|------------|-------|------3^-|-----2^------|-----------|------|
|------|------------|-------|---------|-------------|-----------|------|
|------|------------|-------|---------|-------------|-----------|------|

guitarra 2
|------|------------|-------|-----18^^|-----------12|-----------|------|
|------|------------|-------|---------|----12^p10---|-----------|------|
|------|------------|-------|---------|-------------|-----------|------|
|------|------------|-------|---------|-------------|-----3\1/4-|------|
|------|------------|-------|---------|-------------|-----------|------|
|------|------------|-------|---------|-------------|-----------|------|


segunda parte de la intro:
 
 gtr 1
|--------|-----------------------------------|
|--------|--------1----------1----------3----|
|--------|-----------2----------2----------1-|
|--------|----3-----------2-----------2------|
|--------|--------------0--------------------|
|--------|-1------------------------0--------|
 
 gtr 2
|--------|-----------------------------------|
|--------|-----------------------------------|
|--------|-------1h2**-----------------------|
|--------|-----------------------------------|
|-3~\1/3-|-----------------------------------|
|--------|-----------------------------------|

 gtr 1
|--------------------------------------------------X------------|
|--------1-------------1---------1------------3----X-------1----|
|-----------2------------2----------2------------1-X----------2-|   1
|----3--------------3---------2------------2-------X----3-------|
|---------------------------0----------------------X------------|
|-1------------0-1----------------------0----------X-1----------|
 
                                                   X Hay dos dias en la vida
 Gtr 2
|--------------------------------------------------------------|
|-----1-1-1----1-3-4p3p1-3-1----1-1----1p0--1p0----------------|
|---x2-------x2---------------2-----2-----------2-0-2----------|
|--------------------------------------------------------------|
|--------------------------------------------------------------|
|--------------------------------------------------------------|

gtr 1
|--------------------------------------|
|---------1----------1------------3----|
|------------2----------2------------1-|   (RIFF 1)
|-------3---------2------------2-------|   
|---------------0----------------------|
|-0-1----------------------0-----------|

para los que no naci, dos momentos en la vida que no existen para mi


|-----------------------------------------------------0--|
|--------1-------------1---------1------------3-------1--|
|-----------2------------2----------2------------1----2--|
|----3--------------3---------2------------2----------2--|
|---------------------------0-------------------------0--|
|-1------------0-1----------------------0-------------0--|

ciertas cosas en la vida, no se hicieron para mi, hay
dos dias en la vida para los que no naci


primer solo:

|----12-15-15--12---------10h12-------------------|
|-15---------------15-13-------------13-13--10----|
|-------------------------------------------------|
|-------------------------------------------------|
|-------------------------------------------------|
|-------------------------------------------------|

|---------------------------------------------------|
|----10-13-13------10-13-10-------------------------|
|-12------------12-----------12---------------------|
|-------------------------------12p10--12p10--12p10-|
|---------------------------------------------------|
|---------------------------------------------------|


                   Am         
El primero de esos días, fue cuando te conocí
                    Dm   G                C  E7
Me atraparon tus mentiras y me enamore de ti
                  Am
Del camelo de tus risas, de tus ganas de vivir
                       Dm                       E7
De la crueldad de tus caricias por las que creí morir


Coro (con el riff 1 de arriba):
                   F                      Am                         
Hay dos días en la vida, para los que no nací                     
                  E7                        F 
Dos momentos en la vida que no existen para mi
                    F                        Am
Ciertas cosas en la vida, no se hicieron para mi
                  E7                     Am            
Hay dos días en la vida para los que no nací

Segundo solo (lo mejor que pude hacer):

|--7h8-7h8p7--5-------7h8-7h8p7--5----------------------------------------------------|
|----------------6-------------------5--------------5---------------------------------|
|----------------------------------------------5h7-----5h7----5h7p5h7p5----5-5--------|
|-----------------------------------------5h7---------------------------7-------7-5h7-|
|-------------------------------------------------------------------------------------|
|-------------------------------------------------------------------------------------|

|--7h8-7h8p7--5-------7h8-7h8p7--5--------------------------------------------|
|----------------6-------------------5-------8-10-----8-10-----8-10-----8-10--|
|-----------------------------------------9b-------9b-------9b-------9b-------|
|-----------------------------------------------------------------------------|
|-----------------------------------------------------------------------------|
|-----------------------------------------------------------------------------|

|------------------------------------|
|------------------------------------|
|--7h9p7--5h7p5----5-----------------|
|----------------7---7-5h7p5--7-5h7--|
|------------------------------------|
|------------------------------------|


                   Am
El segundo de esos días fue justo el que te perdí
                 Dm   G                  C   E7 
Se fue tu cara bonita, y mis ganas de vivir
                   Am
Se acabaron las mentiras y de todo aprendí
                       Dm                    E7 
Que hay dos días en la vida para los que no nací


Hay dos días en la vida......................(se repite)

                    F                          Am
Me trague todo el veneno, del que llevaban tus besos
                   E7                        Am
Me empape del sufrimiento que escondia tu sonrisa
                      F                         Am
Descubri que con el tiempo, me perdi todo el respeto
                   E7                           Am
Compraste mis sentimientos con tus labios de carmin


Esta es la escala, los numeros son los trastes y las
letras las cuerdas, los taches son las unicas notas
que debes tocar:

    0     1     2     3     4     5     6     7     8     9    10    11     12 
e|--X--|--X--|-----|--X--|-----|--X--|-----|--X--|--X--|-----|--X--|-----|--X--|
B|--X--|--X--|-----|--X--|-----|--X--|--X--|-----|--X--|-----|--X--|-----|-----|
G|--X--|-----|--X--|-----|--X--|--X--|-----|--X--|-----|--X--|--X--|-----|--X--|
D|--X--|-----|--X--|--X--|-----|--X--|-----|--X--|-----|--X--|--X--|-----|--X--|
A|--X--|-----|--X--|--X--|-----|--X--|-----|--X--|--X--|-----|--X--|-----|--X--|
E|--X--|--X--|-----|--X--|-----|--X--|-----|--X--|--X--|-----|--X--|-----|--X--|
Suggest correction
Give kudos to tab author, rate the tab!
1 2 3 4 5
comments
print report bad tab
guest
You may want to rate the tab now too:
select rating
Wanna post a correction for this tab? Suggest correction