Oops, an error
Loading. Please wait.

Duerme Conmigo Bass Tab

59 views 3 this week
no commentswrite comment
1 2 3 4 5
3 more votes to show rating
add to favorites
launch autoscroll
font size
0
reset
guitar tuner
Autoscroll
slow
fast
+/-
esc
set tempo
stop
Help us to improve Ultimate-Guitar.com Take our survey!
×
  Esta cancion es pava, aquí les envio el tab para bajo
para que se den vida.

'Busco un lugar...

----------------------------------------
----------------------------------------
-777777---2222--------------------------
----------------333333333---------------
              ...en esta ciudad'
'Donde esconderme de la corriente...
----------------------------------------
----------------------------------------
--7777777--222222---5555555555----------
----------------------------------------
        ...que me lleva'

 Luego la canción sigue igual.

 Cuando dice 'Busco ese lugar...' es así:

-----------------------------
-----------------------------
--7-7----5--7----------------    x3 (Rapido)
-------7---------------------

La otra estrofa es igual a la primera. Luego cuando dice 
al final de la segunda estrofa  'Dime la verdad...' es 
igual que cuando dice 'Busco ese lugar...'

Luego...

----------------------------------------
----------------------------------------
----7/0--2--3333333-----555555----------
----------------------------------------
Y decidir sobre la marcha donde ir...
--------------------------------------
--------------------------------------
---0-2-33333333---5555555-------------
--------------------------------------

Y despertar,abrir los ojos y encontrar...
-----------------------------------------
-----------------------------------------
---0-2-333333333---5555555---------------
-----------------------------------------

Que nada sigue igual...
-----------------------------------------------
-----------------------------------------------
-------------------3333-33333-3333333-3333-----
-000000---1111111------------------------------

Cuando caigas varias veces en el 3er traste de la cuerda
LA es cuando estas diciendo, 'Igual, igual, igual...'

La estrofa que viene es igual que las anteriores.
Luego cuando dice narunarunaaa es lo mismo que las 
estrofas. Y luego el final cuando dice varias veces 
'Ven a mi cama, duerme conmigo...' es así:

---------------------------------------
---------------------------------------
--7777777--3333------------------------
-----------------333333333-------------

es como las estrofas mas o menos pero mas corto,
eso es todo, y terminas diciendo 'Duerme conmigo'

 Escuchen la canción para que vean que suena pavo.

   Bye!!!
Suggest correction
Give kudos to tab author, rate the tab!
1 2 3 4 5
comments
print report bad tab
guest
You may want to rate the tab now too:
select rating
Wanna post a correction for this tab? Suggest correction