Oops, an error
Loading. Please wait.

El Lado Obscuro Bass

version 1
version 1

Whole song

368 views 1 this week
no commentswrite comment
1 2 3 4 5
3 more votes to show rating
add to favorites
×
Save as Personal and add changes to this tab that will be seen only by you. Learn more ›
launch autoscroll
font size
0
reset
guitar tuner
Autoscroll
slow
fast
+/-
esc
set tempo
stop
El lado obscuro

Esta canción es muy chida y también es muy fácil pero
oigan la rola para que la saquen bien.
INTRO empieza con guitarra
y el bajo solo hace ?do? y luego hace esto:

G |------------------||------------|
D |------------------||------------|
A |-10/33----33----3-||-------6-3--|
E |-------33----33---||-3-6-3------|

Se queda solo la guitarra

Puede que hayas nacido......

G |-----------------------|
D |-----------------------|
A |-10/33----33----33-----|
E |-------33----33----33--|

Se queda así hasta que llega a la parte
Donde dice esto:

Y no me sonrojo si te digo que te quiero.....

G |-----------||-------------||------------|
D |-----------||-------------||------------|
A |----3----5-||-33----33----|||----3----5-|
E |-11---33---||---33----33--||-11---33----|

De entre todas las estrellas que yo vi en
El firmamento....

G |--------------|
D |--------------|
A |-33----33-----|
E |----33----33--|

Se queda así hasta la parte
Donde dice esto:

no me sonrojo si te digo que te quiero.....

G |-----------||-------------||------------|
D |-----------||-------------||------------|
A |----3----5-||-33----33----|||----3----5-|
E |-11---33---||---33----33--||-11---33----|

De entre todas las estrellas que yo vi en
El firmamento....

Solo de guitarra

G |--------------|
D |--------------|
A |-33----33-----|
E |----33----33--|

G |-----------||-------------||------------|
D |-----------||-------------||------------|
A |----3----5-||-33----33----|||----3----5-|
E |-11---33---||---33----33--||-11---33----|
Puede que hayas nacido.....

G |-------------|
D |-------------|
A |-55----55----|
E |----55----55-|

Se queda así hasta la parte
Donde dice esto:

no me sonrojo si te digo que te quiero.....

G |-----------||-------------||------------|
D |-----------||-------------||------------|
A |----5----7-||-55----55----||----5----7--|
E |-33---55---||----55----55-||-33---53----|

Así acaba:
G |----------|
D |----------|
A |-5-----5--|
E |---5-3----|

ULTIMO SOLO DE GUITARRA (este bajeo es fácil)
les doy la base por si lo quieren adornar diferente:

G |-----------------------------|
D |-------------------77----77--| (se repite varias veces hasta que acaba
A |----55----77----55----55-----|  la canción).
E |-33----55--------------------|

Pues ahí esta la rola espero les haya
gustado y saludos para haden de parte del
bajista.
Suggest correction
Give kudos to tab author, rate the tab!
1 2 3 4 5
comments
print report bad tab
guest
You may want to rate the tab now too:
select rating
Wanna post a correction for this tab? Suggest correction