Oops, an error
Loading. Please wait.

El Lado Obscuro Tab

version 2
version 2

Whole song

173 views 1 this week
no commentswrite comment
1 2 3 4 5
3 more votes to show rating
add to favorites
launch autoscroll
font size
0
reset
how to read this tab
guitar tuner
×
Best way to learn
"El Lado Obscuro"
Autoscroll
slow
fast
+/-
esc
set tempo
stop
hola, yo se que no se debe mandar transcripciones que
ya estan , pero las que estan, estan mal, ok.

esta es la intro correcta

|----------------|---------------|----------------|
|----------------|---------------|----------------| 
|----------------|---------------|----------------|
|----------------|---5p3---------|----------------|
|---1----5/6--3*-|-3-----5/6--3*-|---1----5/6--3*-|
|-3---3----------|---------------|-3---3----------|

|-------------------|-------------|---------------|
|-------------------|-------------|---------------|
|-----3-------------|-------------|---------------|
|-4h5---5p3---------|-------------|---------------|
|------------5/6--3-|--------2-3\-|---1---5/6--3*-|
|-------------------|-3p2p0-------|-3---3---------|  

ahora el resto:

(Nota1: los asteriscos arriba de la letra indica que
tienes que hacer lo siguiente: un slide desde el Cm al Dm :

|-3/5-3/5-|
|-4/6-4/6-|
|-5/7-5/7-|
|-5/7-5/7-|
|-3/5-3/5-|
|-3/5-3/5-|

escucha con cuidado la cancion para que me entiendas.)

(Nota2: rasguea un poco sobre Fm y Gm)

Cm                            *                   * *
Puede que hayas nacido en la cara buena del mundo
                        *
Yo nací en la cara mala, llevo la marca del lado oscuro
      Fm                   Gm
Y no me sonrojo si te digo que te quiero
Cm                         *
Y que me dejes o te deje, eso ya no me da miedo
      Fm                   Gm           Cm
Habías sido sin dudarlo la más bella de entre todas

las estrellas que yo vi en el firmamento.

Como ganarse el cielo cuando uno ama con toda el alma
Y es que el cariño que te tengo no se paga con dinero
Como decirte que sin ti muero
Y no me sonrojo si te digo que te quiero
Y que me dejes o te deje, eso ya no me da miedo
Habías sido sin dudarlo la más bella de entre todas
las estrellas que yo vi en el firmamento.

SOLO

aqui se cambia de tono y se comienza de esta manera:

|----------------|
|----------------|
|----------------|
|----------------|
|---3----7/8--5*-|
|-5---5----------|

Nota3: al igual que arriba, hay que hacer un slide
donde hay asteriscos en el verso, pero ahora es
del Dm al E:

|-5/7--5/7-|
|-6/9--6/9-|
|-7/9--7/9-|
|-7/9--7/9-|
|-5/7--5/7-|
|-5/7--5/7-|


Dm                               *                * *
Puede que hayas nacido en la cara buena del mundo
                        *
Yo nací en la cara mala, llevo la marca del lado oscuro
      Gm                   Am
Y no me sonrojo si te digo que te quiero
      Dm                   *
Y que me dejes o te deje, eso ya no me da miedo
      Gm                   Am      Dm
Habías sido sin dudarlo la más bella de entre todas

las estrellas que yo vi en el firmamento.
      Gm                   Am     Dm
no me sonrojo si te digo que te quiero, si te digo que te quiero.

SOLO

a mi siempre me da hueva tabular todos los solos, asi
que aqui tienes la escala para que tu los saques, los
tache son los trastes que debes tocar, los numeros son
los trastes y las letras son las cuerdas:

Para la primera parte(con los acordes Cm,Dm,Fm,Gm):

   0   1   2   3   4   5   6   7   8   9  10  11   12
e|---|-X-|-X-|-X-|-X-|-X-|-X-|---|-X-|-X-|-X-|-X-|---|
B|---|-X-|-X-|-X-|-X-|---|-X-|-X-|-X-|-X-|-X-|-X-|---|
G|-X-|-X-|-X-|-X-|---|-X-|-X-|-X-|-X-|---|-X-|-X-|-X-|
D|-X-|-X-|---|-X-|-X-|-X-|-X-|-X-|-X-|---|-X-|-X-|-X-|
A|-X-|-X-|---|-X-|---|-X-|-X-|---|-X-|-X-|-X-|-X-|-X-|
E|---|-X-|-X-|-X-|-X-|-X-|-X-|---|-X-|---|-X-|-X-|---|

Para la segunda parte(con los acordes Dm,E,Gm,Am) :

   0   1   2   3   4   5   6   7   8   9  10  11   12
e|-X-|---|-X-|-X-|-X-|-X-|-X-|-X-|-X-|---|-X-|---|-X-|
B|-X-|-X-|---|-X-|---|-X-|---|-X-|-X-|-X-|-X-|-X-|-X-|
G|-X-|-X-|-X-|-X-|-X-|-X-|---|-X-|---|-X-|---|-X-|-X-|
D|-X-|---|-X-|---|-X-|-X-|-X-|-X-|-X-|-X-|-X-|---|-X-|
A|-X-|-X-|-X-|-X-|---|-X-|---|-X-|---|-X-|-X-|-X-|-X-|
E|-X-|---|-X-|-X-|-X-|-X-|-X-|-X-|-X-|---|-X-|---|-X-|

instrucciones:

5/7 slide del 5 al 7
7\5 slide del 7 al 5
5/  slide del 5 para arriba hasta donde quieras
5\  slide del 5 para abajo hasta donde quieras
5*  dejar sonar (no lo confundas con el del verso)
5h7 hammer on
7p5 pull off
Suggest correction
Give kudos to tab author, rate the tab!
1 2 3 4 5
comments
print report bad tab
guest
You may want to rate the tab now too:
select rating
Wanna post a correction for this tab? Suggest correction