Oops, an error
Loading. Please wait.

No Me Sonrojo Tab

36 views 1 this week
no commentswrite comment
1 2 3 4 5
3 more votes to show rating
add to favorites
launch autoscroll
font size
0
reset
how to read this tab
guitar tuner
Autoscroll
slow
fast
+/-
esc
set tempo
stop
Help us to improve Ultimate-Guitar.com Take our survey!
×
Bonita canción de Jarabe de Palo. Se la dedico a una chica que no olvidaré
 jamás y que en este momento llena mi vida de alegría. Victoria Pamblanco.

  Riff1

e||---------------|
B||---------------|
G||---------------|
D||---------------|
A||--------6/7-4--|
E||--4-7-4--------|

  Riff2

e|---------------|---------------|---------------------------|
B|---------------|---------------|---------------------------|
G|---------------|---------------|---------------------------|
D|----6-4--------|---------------|--6---9-6/4-4--------------|
A|--4-----6/7-4--|--------6/7-4--|--------------4-------2-4--|
E|---------------|--4-7-4--------|----------------4-3/2------|

(Riff1)

         DO#m
Puede que hayas nacido en la cara buena del mundo
Yo nací en la caramada, llevo la marca del lado oscuro


                   Estribillo

             FA#m                SOL#
//Y No me sonrojo si te digo que te quiero,
                  DO#m
//Y que me dejes o te deje eso ya no me da miedo
         FA#m                      SOL#          DO#m
//A mi has sido sin dudarlo la mas bella, de entre todas las estrellas

//que yo ví en el firmamento. (Riff1)


         DO#m
Como ganarse el cielo, cuando uno ama con toda el alma
Y es que el cariño que te tengo no se paga con dinero,
Como decirte que sin ti muero,

                    Estribillo

 (solo) DO#m FA#m SOL# DO#m FA#m DO#m FA#m SOL#

(UN TONO ARRIBA)

e||---------------|
B||---------------|
G||---------------|
D||---------------|
A||--------8/9----|
E||--6-9-6-----6--|


Puede que hayas nacido en la cara buen del mundo
Yo nací en la caramada, llevo la marca del lado oscuro.

                    Estribillo
(solo)


                    Desde Alicante----> Arnold
Suggest correction
Give kudos to tab author, rate the tab!
1 2 3 4 5
comments
print report bad tab
guest
You may want to rate the tab now too:
select rating
Wanna post a correction for this tab? Suggest correction